Paraíso (Acordes)

Invencibles

Subida por Crvega2001

Compartir


Cambiar Cifrado
Americano Latino

Cambiar Tonalidad
-1 +1
Imprimir FAQ
+A
-A

Texto

Desplazamiento

Transportador

Color de Fondo

Archivos

-A
+A
Intro:

    A                        E
e||------------------------------------------------------
B||------------------------------------------------------
G||------------------------------------------------------
D||-------4-------------4--------------------------------
A||---4-7---7-4-----4-7--7-4-----2-4-2--------2-4-2------
E||-5-----------5-5----------0-4-------4-0-0-4------4-0--

    D
e||------------------------------------------------------
B||------------------------------------------------------
G||-------4-------------4e-4-----------------------------
D||---4-7---7-4-7-7-4-7-------7777--4--------------------
A||-5-------------------------7777----7-4----------------
E||---------------------------5555-----------------------

    A                        E
e||------------------------------------------------------
B||------------------------------------------------------
G||------------------------------------------------------
D||-------4-------------4--------------------------------
A||---4-7---7-4-----4-7--7-4-----2-4-2--------2-4-2------
E||-5-----------5-5----------0-4-------4-0-0-4------4-0--

    D            Rapidíto.....
e||------------------------------------------------------
B||------------------------------------------------------
G||-------4------4e-4-2-4e-2-4---------------------------
D||---4-7---7-4-----------------7777--4------------------
A||-5---------------------------7777----7-4--------------
E||-----------------------------5555---------------------



A                 E
Un nuevo juicio para mí corazón

         D                     A  Riff1
y lo sentencian de nuevo al dolor,

                      E
creí que me comía al mundo esta vez

            D              A
y de un mordisco me devoró él.


A            E
Me enseñaste lo que es el amor

             D                   A
un juego hermoso donde no hay perdón,

                          E
llevo en el alma el fuego de esta ilusión

        D                       A
no hay vientos que la apaguen, noo.


G                 D                        E
Llegaste me endulzaste y dejaste como un sueño

                 B           B-A#-A (1 toque cada acorde)
lo que era una realidad,

                               E
no hay estrellas que iluminen esta vida

       D              A    Riff 2
donde sólo hay oscuridad.


Coro:

    A                       E
Y floto en tu cielo y me asfixio en tu infierno

       D                  A
el paraíso te quiero msotrar.

                              E
A flotar mis deseos y que asfixien a tus miedos

       D           A
y que sobre felicidad.


E - D - A

Riff 3



Es el mar de tu tristeza
en el que navegará mi emoción
toma el timón esta sensación
iza las velas mi corazón.

El silencio reinó en alta mar
y en tus brazos me pude encerrar
soy el pirata que un teroso buscó
nunca el deseo así se premió.

Llegaste me endulzaste y dejaste como un sueño
lo que era una realidad,
no hay estrellas que iluminen esta vida
donde sólo hay oscuridad.

Coro x2

Intro (hay que estirar más la nota B. Como en el principio, pero más)

A                  E
Un nuevo juicio para mí corazón

  C#     D                   B-A
y lo sentencian de nuevo al dolor.


Fin: A



Riff 1:

e||------------------------------------------------------
B||------------------------------------------------------
G||------------------------------------------------------
D||------------------------------------------------------
A||----44-55-66-77-88-99-10-----------------------------
E||--55--------------------------------------------------

Riff 2:

e||-------7-----7-----7-----7----------------------------
B||---4h5---4h5---4h5---4h5------------------------------
G||------------------------------------------------------
D||------------------------------------------------------
A||------------------------------------------------------
E||------------------------------------------------------

Riff 3:

e||------------------------------------------------------
B||------------------------------------------------------
G||---4~--6-4-2~-----------------------------------------
D||------------------------------------------------------
A||------------------------------------------------------
E||------------------------------------------------------


Acordes:

      A     E     D     G     B     A#    D#
e||------------------------------------------------------
B||------------------------------------------------------
G||---------9-----7-----------------------8--------------
D||---7-----9-----7-----5-----9-----8-----8--------------
A||---7-----7-----5-----5-----9-----8-----6--------------
E||---5-----------------3-----7-----6--------------------

El C# (Do Sostenido), no está puesto en la letra, porque es opcional..
Pueden usarlo cada vez que pasa de E a D, así rapidíto.. Queda muy bien..

Espero que les haya gustado.. Temazaso, y terrible banda también..
Todos en Estudiantes del Norte el 23/9 !!!


Cualquier duda/correción, mi mail es [email protected]

Suerte


Video Clip de Paraíso


ACORDES PARA GUITARRA

PIANO UKELELE
A
E
D
G
B
A#
C#
D#


TOP 20: Las más tocadas de Invencibles


Toca una Canción al Azar de Invencibles

Acordes

Cerrar
A
E
D
G
B
A#
C#
D#

23.27

x

104