Por donde pisar
Invencibles
Acordes

Subida por elflacosagrado


Más Versiones
Ver. 2 Ver. 3

Cambiar Cifrado
Americano Latino

Cambiar Tonalidad
-1 +1

Partir Pantalla Imprimir FAQ

+A
-A
[INTRO] C-G-F-Am-G-F x2

C G F
e|---------------------------------------
B|-/5~-8-5----------------------5h6-5----
G|--------7~-----5---5-7h9p7-5~------7-5-
D|------------5-7---7-------7------------
A|---------------------------------------
E|---------------------------------------

Am G F
e|----------------------------------
B|-/5~-8-5--------------------------
G|--------7~--7h9-7-5~--7-7b9br7-5~-
D|----------------------------------
A|----------------------------------
E|----------------------------------

C G F
e|---------------------------------------
B|-/5~-8-5----------------------5h6-5----
G|--------7~-----5---5-7h9p7-5~------7-5-
D|------------5-7---7-------7------------
A|---------------------------------------
E|---------------------------------------

Am G F
e|--------------------------------------------------|
B|--/13~---13-15~--15b17-13~--15b17-15b1715b17--13~-|
G|-------14-----------------------------------------|
D|--------------------------------------------------|
A|--------------------------------------------------|
E|--------------------------------------------------|

[VERSO]

C G F
Ayer soñé con el futuro
C G F
y no le pregunté por mi
C G F
no me interesa conocer
C G F
si realmente fuí feliz
G F C G
o lo que nunca quise ser

C G F
Que los bolsillos no me pesen
C G F
que ¿sea afinado? mi corazón
C G F
que mis raices no me encierren
C G F
que esta vez me conformo yo
G F C
no confundan la ambición con pasión

[ESTRIBILLO]

G Am F C
Basta de anestesias que duerman mis ganas de seguir
G Am F C
no hay remedio para lo que me hace bien
G Am F C
basta de tratarme, yo conozco mi bienestar
G Am F C
no busquen la ciencia que lo que siento puede encontrar
G F C G
yo elijo por donde pisar

[SOLO]

C G F
e|---------------------------------------
B|-/5~-8-5----------------------5h6-5----
G|--------7~-----5---5-7h9p7-5~------7-5-
D|------------5-7---7-------7------------
A|---------------------------------------
E|---------------------------------------

Am G F
e|----------------------------------
B|-/5~-8-5--------------------------
G|--------7~--7h9-7-5~--7-7b9br7-5~-
D|----------------------------------
A|----------------------------------
E|----------------------------------

D# A# Cm D# A#
e|--------------------------/8~-10h11-10-8-11-10-8-6~-----6~--
B|-/8~-8-10-11-10-8------------------------------------6h8----
G|-----------------10~-7--------------------------------------
D|----------------------8~------------------------------------
A|------------------------------------------------------------
E|------------------------------------------------------------

aca una viola hace esto:

Cm D# G
e|-/8~--10b11-10b11-10b11-10~~-|
B|-----------------------------|
G|-----------------------------|
D|-----------------------------|
A|-----------------------------|
E|-----------------------------|

y la otra esto:

Cm D# G
e|----------------------|
B|----------------------|
G|-/5~-7h8-7-5-8-7-5-4~-|
D|----------------------|
A|----------------------|
E|----------------------|

C

e|-----8~-|
B|-8h10---|
G|--------|
D|--------|
A|--------|
E|--------|

[VERSO]

Cuando nadie de un peso por mis sueños
por la esperanza que ayer coceché
quizás las nubes que se aproximen
traigan la tormenta que desate
y ayude a calmar mi sed

[ESTRIBILLO]

Basta de anestesias que duerman mis ganas de seguir
no hay remedio para lo que me hace bien
basta de tratarme, yo conozco mi bienestar
no busquen la ciencia que lo que siento puede encontrar
yo elijo por donde pisar
yo elijo por donde pisar

G-F-C

G-F-C-D-E-F F-E-B-C

G F C D E F F E B C
e|--------------------------------------------------|
B|--------------------------------------------------|
G|-----------------------------5-7-9-10---10-9------|
D|-555-----------333-----------5-7-9-10---10-9-9-10-|
A|-555-3h5-3-2---333-1h3-1-0---3-5-7-8----8--7-9-10-|
E|-333--------3--111--------1------------------7-8--|



eso es todo, muy buen tema, si encuentran errores mandenme mail a
[email protected]
Aguante el rock n´ roll y nada mas,
es algo que los chetos no pueden entender!


ACORDES PARA GUITARRA

PIANO UKELELE
C
G
F
Am
D#
A#
Cm
D
E
B


COMENTARIOS

Aún no hay comentarios,

¡escribe el primero!

Escribe una pregunta, duda o comentario sobre esta canción, te responderemos a la brevedad.

Las más tocadas de Invencibles

Toca una Canción al Azar de Invencibles
C
G
F
Am
D#
A#
Cm
D
E
B