Siento (Acordes)

Invencibles

Subida por carochiurazzi

Compartir


Cambiar Cifrado
Americano Latino

Cambiar Tonalidad
-1 +1
Imprimir FAQ
+A
-A

Texto

Desplazamiento

Transportador

Color de Fondo

Archivos

-A
+A
[INTRO] Bm-C-G G-Bm-C-G


e|-3------------------------------------------7-7h8-7-5-3~-|
B|-3-3-5-3-----------------------------------8-------------|
J|--4------5-3-4~-5/4-4/2-2h0-0~-0h4-4/5-5/77~-------------|
D|---------------------------------------------------------|
A|---------------------------------------------------------|
E|---------------------------------------------------------|

[VERSO]

G          Bm          C           G
Sentir que a mi cuerpo nada lo lastima
G          Bm          C           Am
sentir que el universo en vos termina
C          Em           Am           G
conocer el infinito cuando tus ojos miran
C          Em           Am            D
conocer el mas alla cuando tu boca es mia

Sentir que la luna por vos ilumina
sentir que el sol da calor por tu vida
pienso que las olas son por tu energia
pienso que los reyes conocen tu sonrisa

[ESTRIBILLO]

G          D               C       G
Siento que tantas guerras puedo parar
G         Bm           C       Am
siento que a mi dios no lo necesito mas
G          D           C        G
siento que este mundo puedo cambiar
G       Bm             C          Am
siento que la vida me da otra oportunidad
C       Bm-Am-G
siento felicidad

[SOLO] En base VERSO

e|--------------------------------------------------------------
B|---3-3/5-00~--0-0h1-1-1-0---------3-3/5-00~--0-0h1-1-1-0------
G|-0~----------------------0h2p0--0~----------------------1/2~--
D|--------------------------------------------------------------
A|--------------------------------------------------------------
E|--------------------------------------------------------------

e|-------2-3-5b-3-2--2-3-5b~-5-3-2-------
B|-1~/3-5-----------5--------------5~-3~-
G|---------------------------------------
D|---------------------------------------
A|---------------------------------------
E|---------------------------------------

e|--2-3-5b-3-2-3-5b-3-2--2-3-5b-3/2-2p0-------
B|-5-----------------------------------5/3-3~-
G|--------------------------------------------
D|--------------------------------------------
A|--------------------------------------------
E|--------------------------------------------

e|------------------------|
B|-1-0-0h1-0--1-1/3-1-0---|
G|---------------------0~-|
D|------------------------|
A|------------------------|
E|------------------------|

[VERSO]

Sentir que la muerte no me necesita
sentir que con tu voz la musica no se termina
vivir en tu piel cuando sangran mis heridas
vivir con tu aliento cuando todo me castiga

[ESTRIBILLO]

Siento que tantas guerras puedo parar
siento que a mi dios no lo necesito mas
siento que este mundo puedo cambiar
siento que la vida me da otra oportunidad
(Aca alarga Am, dsps hace D y esto):

e|-------------------------------|
B|-----------1-3-3h5-3-1---------|
G|------0-2-4-----------4-2-0----|
D|-0-2-4---------------------4-2-|
A|-------------------------------|
E|-------------------------------|

G-Am-Bm-C x2

[ESTRIBILLO]

Siento que tantas guerras puedo parar
siento que a mi dios no lo necesito mas
siento que este mundo puedo cambiar
siento que la vida me da otra oportunidad
siento felicidad
siento felicidad

termina en G



Weno, le agregué el solo y arreglé una nota dl estribillo
cualkier duda mandan mail a [email protected]
Aguante el Rock n´ roll y nada mas,
es algo que los chetos no pueden entender!


Video Clip de Siento


ACORDES PARA GUITARRA

PIANO UKELELE
Bm
C
G
Am
Em
D


TOP 20: Las más tocadas de Invencibles


Toca una Canción al Azar de Invencibles

Acordes

Cerrar
Bm
C
G
Am
Em
D

07.21

x

88