Alquimista
Jaguares
Acordes

Subida por tony
Álbum: 45 ( 2008)


Más Versiones
Ver. 2
+A
-A
Aquí esta otra rola del nuevo disco 45
gracias Saul y a los Jaguares por este grandioso disco.


Intro:

E|----X---X--X---X--X---X--X---X--3---3--3---3--3---3--3---3--|
B|----7---7--7---7--5---5--5---5--5---5--5---5--3---3--3---3--|
G|----7---7--7---7--6---6--6---6--5---5--5---5--4---4--4---4--|
D|----7---7--7---7--7---7--7---7--5---5--5---5--5---5--5---5--|
A|----5---5--5---5--7---7--7---7--3---3--3---3--5---5--5---5--|
E|----5---5--5---5--5---5--5---5--3---3--3---3--3---3--3---3--|

D
Ay
A C G
como cambia la piel
Am C
transforma los espacios, las ideas
Bm D
destruye la estructura y la memoria
Am C
se vuelve una bestia incontrolable
Bm D
ausente de destinos victimitas.
D
Ay
A C G
como cambia la piel
Am C
despoja los deseos caprichosos
Bm D
te quita la ceguera y pone focos
Am G
focos ultravioletas que dan alarma
Bm D
la luz de este hemisferio que es la vida.

Am C Bm D
Por que dentro de un frasco he vivido
Am C Bm D
por que dentro de un frasco he vivido
Am C Bm D
por que dentro de un frasco he vivido
Am C Bm D
por que dentro de un frasco he vivido.

Am C F#m F
Ah, ah, oh, oh, oh, oh,
Am C F#m F
ah, ah, oh, oh, oh, oh.


cuando canta esta parte va acompañado
del siguerte riff:
E|------7------------7-------------7-----------------
B|----8-----8------8-----8-------8-----8---7---8---7-
G|-9------------8-------------7----------------------
D|---------------------------------------------------
A|---------------------------------------------------
E|---------------------------------------------------
Atravez de la ciencia celular
E|------7------------8--------------8---------------8----------|
B|----8-----8------8-----8------10-----10-------10-----10------|
G|-9------------9------------9--------------10-------------10--|
D|-------------------------------------------------------------|
A|-------------------------------------------------------------|
E|-------------------------------------------------------------|
te descubrí alquimista sensorial

E|------7------------7-------------7-----------------
B|----8-----8------8-----8-------8-----8---7---8---7-
G|-9------------8-------------7----------------------
D|---------------------------------------------------
A|---------------------------------------------------
E|---------------------------------------------------
separa la materia potencial

E|------7------------8--------------8---------------8----------|
B|----8-----8------8-----8------10-----10-------10-----10------|
G|-9------------9------------9--------------10-------------10--|
D|-------------------------------------------------------------|
A|-------------------------------------------------------------|
E|-------------------------------------------------------------|

obteniendo supervivencia indivisible.

Am C F#m F
Ah, ah, oh, oh, oh, oh,
Am C F#m F
ah, ah, oh, oh, oh, oh.

D
Ay
A C G
como cambia la piel
Am C
ausencias y denuncias de ilusiones
Bm D
drama y derrames generacionales
Am C
latidos de mis almas descarnadas
Bm D
lamento de mi sangre evaporada.


Am C Bm D
Por que dentro de un frasco he vivido
Am C Bm D
por que dentro de un frasco he vivido
Am C Bm D
por que dentro de un frasco he vivido
Am C Bm D
por que dentro de un frasco he vivido.


riff final:

E|--X---X--X---X--X---X--X---X--3---3--3---3--3---3--3---3-----5-|
B|--7---7--7---7--5---5--5---5--5---5--5---5--3---3--3---3-----7-|
G|--7---7--7---7--6---6--6---6--5---5--5---5--4---4--4---4-----7-|
D|--7---7--7---7--7---7--7---7--5---5--5---5--5---5--5---5-----7-|
A|--5---5--5---5--7---7--7---7--3---3--3---3--5---5--5---5-----5-|
E|--5---5--5---5--5---5--5---5--3---3--3---3--3---3--3---3-----5-|

Saludos y un abrazo con mucho cariño a Diana y a ti Adriana donde
quiera que estes!
Te quiero mucho Brisa.


ACORDES PARA GUITARRA

PIANO UKELELE
D
A
C
G
Am
Bm
F#m
F


COMENTARIOS

Aún no hay comentarios,

¡escribe el primero!

Escribe una pregunta, duda o comentario sobre esta canción, te responderemos a la brevedad.

Las más tocadas de Jaguares

Toca una Canción al Azar de Jaguares
D
A
C
G
Am
Bm
F#m
F