Fin
Jaguares
Acordes

Subida por cachalfa
Álbum: Bajo el azul de tu misterio ( 1999)


Más Versiones
Ver. 2 Ver. 3 Ver. 4 Ver. 5 Ver. 6
+A
-A
INTRO
(guitarra 1):

e|-------10------10--------10-|-----10---------|
B|---8-------8-------7---7----|-7--------------|
G|-7---7-------7-------7------|---7------------|
D|----------------------------|----------------|
A|----------------------------|----------------|
E|----------------------------|----------------|

(guitarra 2): h p
e|----------------------------|----------------|
B|----------------------------|-7/8/7----------|
G|----------------------------|-------7--------|
D|----------------------------|----------------|
A|----------------------------|----------------|
E|----------------------------|----------------|

.....(deja sonar la nota)

Participan 2 guitarras en la introducción, pero la puedes tocar asi:

h p

e|-------10------10--------10-----------|
B|---8-------8-------7---7------7/8/7---|
G|-7---7-------7-------7----------------| REPETIR
D|--------------------------------------|
A|--------------------------------------|
E|--------------------------------------|




C Bm
Si yo me fuera antes de amarte
Am F G
me suicido cayendo al mundo con mis alas
C Bm
y aquí en la tierra te doy mi esencia
Am F
te doy mis cielos todos mis sueños
G
con tal de ver el calor
Am
de tu calma
Amaj7
de tus manos
Am7
de tu risa
[email protected]
de tu alma


C D
Fin,
Em Bm
todo tiene un fin
C D
menos el fuego de tus ojos
C D
que se pierden
Em Bm
profundo en el misterio
C
de las historias
D
que no cuenta
Em Bm
el celestial calor del sol


C Bm
Y después de un tiempo te vuelvo eterna
Am F
te saco del mundo, te purifico
G
y nos perdemos volando
[email protected]
en lo eterno


Am, Bm, C, D


Am
Dame tu vida
Amaj7
te doy mi esencia
Am7
nuestra última entrega
[email protected]
de un gran principio


C D
Fin,
Em Bm
todo tiene un fin
C D
menos el fuego de tus ojos
C D
que se pierden
Em Bm
profundo en el misterio
C
de las historias
D
que no cuenta
Em Bm
el celestial calor del sol


C D
Fin,
Em Bm
todo tiene un fin
C D
menos el fuego de tus ojos
C D
que se pierden
Em Bm
profundo en el misterio
C
de las historias
D
que no cuenta
Em Bm
el celestial calor del sol

pisadas:

C D Em F G [email protected] Am Amaj7 Am7 Bm

e|-0----2----0----1----3----0----5----0----0----2--|
B|-1----3----0----1----3----0----5----0----1----3--|
G|-0----2----0----2----4----4----5----1----0----4--|
D|-2----0----2----3----5----5----7----2----2----4--|
A|-3----0----2----3----5----5----7----0----0----2--|
E|-3----X----0----1----3----3----5----0----0----2--|

Transcripcion por:
AlEjAnDrO ViRaMoNtEs
([email protected])
LuIs GuIlLeRmO bEdOlLa
([email protected]
Quejas, sugerencias y mentadas de madre a:
[email protected] y [email protected]


ACORDES PARA GUITARRA

PIANO UKELELE
C
Bm
Am
F
G
Amaj7
Am7
D
Em


COMENTARIOS

Aún no hay comentarios,

¡escribe el primero!

Escribe una pregunta, duda o comentario sobre esta canción, te responderemos a la brevedad.

Las más tocadas de Jaguares

Toca una Canción al Azar de Jaguares
C
Bm
Am
F
G
Amaj7
Am7
D
Em