Al Amanecer
La Fuga
Acordes

Subida por Mcandelario7


Más Versiones
Ver. 2 Ver. 3

Cambiar Cifrado
Americano Latino

Cambiar Tonalidad
-1 +1

Partir Pantalla Imprimir FAQ

+A
-A


Ver solo la LETRA
(En esta primera estrofa y el estribillo la guitarra va al ritmo
clásico ska a saltos, pero en el estribillo también hay una guitarra
haciendo los acordes normales)
(Para tocar el ritmo ska es mejor poner los acordes con cejilla,
ya que te permite mayor control sobre el acorde)
(Los acordes entre paréntesis solo se tocan una vez)

Dm Am
Dale caña al motor todavía no quema
Gm Dm/Am
Que pronto empieza la función
Dm Am
Por mis venas el güisqui va deprisa no frena
Gm Dm
Me está encharcando el corazón

(F) (F)/(C) Dm
Quedamos al amanecer
(F) (F)/(C) Dm
Para cantar esa canción
F C Dm
Desde Reinosa hasta Jerez
C A#
Desde Varna a Badajoz
C Dm
Y que se joda el sol

(Solo de guitarra sobre los acordes: Dm_Am_Gm_Dm/Am)
-----------------------------------------------------------
-----------------------------------------------------------
-----10-9-7----7b----10-9-7---------10-9-7----7b---10-9-7--
---7--------10-----7--------10-7--7--------10----7---------
-----------------------------------------------------------
-----------------------------------------------------------

-----------------------------------------------------------
-----------------------------------------------------------
----7v-9-7-9-7v--------------------------------------------
-10--------------------------------------------------------
-----------------------------------------------------------
-----------------------------------------------------------

-----------------------------------------------------------
-----------------------------------------------------------
-----10-9-7----7b---10-9-7-------------------------10-9-7--
---7--------10----7--------10-7v-8-7---------7v--7---------
-------------------------------------10-8-10---------------
-----------------------------------------------------------

-----------------------------------------------------------
------------------------10v--------------------------------
----7b----10-9-7-------------------------------------------
-10-----7--------10-10v------------------------------------
-----------------------------------------------------------
-----------------------------------------------------------

(Las dos primeras líneas de esta estrofa solo van con bajo)

Dm Am
Soy un perro perdido, voy sin maleta
Gm Dm/Am
Soy noctámbulo vampiro
Dm Am
Soy un músico loco, soy un sin rumbo
Gm Dm
Haciendo trampas al destino

F F/C Dm
Quedamos al amanecer
F F/C Dm
Para cantar esa canción
F C Dm
Desde Reinosa hasta Jerez
C A#
Desde Varna a Badajoz
C Dm
Y que se joda el sol


(Solo de guitarra sobre los acordes: Dm_Am_Gm_Dm/Am)
-----------------------------------------------------------
----11-10--------------11-10-11-13-10v--13-10--------------
----------12-10-12b---------------------------12-10-12-----
-12-----------------12---------------------------------12--
-----------------------------------------------------------
-----------------------------------------------------------

-----------------------------------------------------------
----11-10-11-13-10-10-10-----------------------------------
-------------------------12-10-12--------------------------
-12-------------------------------12--------10-------------
--------------------------------------12-12----12-11-10----
--------------------------------------------------------13-

--------14b-14b-14b-13-----13----13----13------------------
-----------------------15-----15----15----15--13-13h15v----
-----------------------------------------------------------
-----------------------------------------------------------
-----------------------------------------------------------
-10-13v----------------------------------------------------



-----------------------------------------------------------
----13-----------------------------------------------------
-14----14b-12----12-------12-12----------------------------
--------------14----14-15-------12-10--12p10h12p10h12p10h12
-----------------------------------------------------------
-----------------------------------------------------------

-----------------------------------------------------------
-----------------------------------------------------------
--------------------------10-------------------------------
-p10h12p10h12p10h12p10-12----12-10-----12p10----10-12-----
-----------------------------------12--------12------------
-----------------------------------------------------------

-----------------------------------------------------------
-----------------------------------------------------------
-10-----------------------10-------------------------------
----12----12p10----10-12-----12-10-12----------------------
-------12-------12-----------------------------------------
-----------------------------------------------------------

A# C Dm
Soy el que nunca lleva prisa
A# C Dm
Cuando ya cierran los portales
A# C Dm
Soy al que le falla la risa
C A#5 C Dm
Y se muere de sed cuando cierran los bares


F F/C Dm |
Quedamos al amanecer |
F F/C Dm |
Para cantar esa canción |
F C Dm |x4
Desde Reinosa hasta Jerez |
C A# |
Desde Varna a Badajoz |
C Dm |
Y que se joda el sol |


ACORDES PARA GUITARRA

PIANO UKELELE
Dm
Am
Gm
F
C
A#
F/C
A#5


COMENTARIOS

Aún no hay comentarios,

¡escribe el primero!

Escribe una pregunta, duda o comentario sobre esta canción, te responderemos a la brevedad.

Las más tocadas de La Fuga

Toca una Canción al Azar de La Fuga
Dm
Am
Gm
F
C
A#
F/C
A#5