Farmacia de guardia
La Fuga
Acordes

Subida por rubim3708


Más Versiones
Ver. 2 Ver. 3 Ver. 4 Ver. 5

Cambiar Cifrado
Americano Latino

Cambiar Tonalidad
-1 +1

Partir Pantalla Imprimir FAQ

+A
-A


Ver solo la LETRA
Me ha costado poquito sacar la cancion pero puede que 
tenga algun fallo,es de la primeras que saco
acepto correciones. ahi va:


Intro y casi toda la canción:
RE5 MI5
e|-----------------------------------------------------------------------|
B|-3--3---------------------------------5--5-----------------------------|
G|-2--2-------2-0-------------0-----0---4--4-------4-2-----------0-----0-|
D|-0--0--0--0-------0-0-0-0h2---0h2-----2--2--2--2-----0-0-0-0h2---0h2---|
A|-----------------------------------------------------------------------|
E|-----------------------------------------------------------------------|
P.M ^ ^ ^ ^ ^ ^ ^ ^ ^ ^

Re5 (Una Farmacia de guardia...) Mi5 (a seis manzanas del cielo)
e|-----------------------------------------------------------------------|
B|-3--3---------------------------------5--5-----------------------------|
G|-2--2-------2-0-------------0-----0---4--4-------4-2-----------0-----0-|
D|-0--0--0--0-------0-0-0-0h2---0h2-----2--2--2--2-----0-0-0-0h2---0h2---|
A|-----------------------------------------------------------------------|
E|-----------------------------------------------------------------------|
P.M ^ ^ ^ ^ ^ ^ ^ ^ ^ ^

*todo esto seguido y repetido muchas veces siguiendo la canción

*el primer cambio va cuando canta:

DO5 RE5
´sabe que son perdedores y ya no espera dolores
MI5 RE5
y le sigue y le sigue

MI5 RE5
y le sigue y le sigue

*y ahora viene el solo que no lo voy a sacar,el resto se repite.
y esto es todo, facilisima ake si.

Admito dudas o lo q sea al correo


ACORDES PARA GUITARRA

PIANO UKELELE
D5
E5
C5


COMENTARIOS

Aún no hay comentarios,

¡escribe el primero!

Escribe una pregunta, duda o comentario sobre esta canción, te responderemos a la brevedad.

Las más tocadas de La Fuga

Toca una Canción al Azar de La Fuga
D5
E5
C5