c ▷ NO SÓLO RESPIRAR: (La Fuga) Acordes para Guitarra, Piano & Ukelele

No sólo respirar (Acordes)

La Fuga

Subida por esteban1985

Compartir


Imprimir FAQ
+A
-A

Texto

Desplazamiento

Transportador

Color de Fondo

Archivos

-A
+A
Nueva canción de La Fuga de su nuevo disco…todo una perla!!

Comenzaría con un arpegio con estas posturas

  SIm*               SOL*                  LA*
---------         -----------          -----------
---------         -----------          -----------
-----4---         -----4-----          ----4------
---4---4-         ---4---4---          --4---4----
-2-------         -----------          -0---------
---------         -3---------          -----------


Intro:  SIm* SIm* SOL* LA* (x2)



SIm*       SOL*      SIm*    SIm*
    No tiraré de reproches
SOL*     LA*     SIm*   SIm*
Me basta con un adiós

--------------------------------------------------------------
--------------------------------------------------------------
-----6--------6----------4--------4--------6--------6---------
---7---7----7---7------5---5----5---5----7---7----7---7-------
-7--------7----------5--------5--------7--------7-------------
--------------------------------------------------------------
Se me atragantan tus noches               Tus días aún pe-

---------------------0-------------------------------------
-----3-------3---------3---3---2---0-----------------------
---2---2---2---2---------2---2---2-------------------------
-0-------0-------------------------------------------------
-----------------------------------------------------------
-----------------------------------------------------------
-or

SIm*         SOL*      SIm*      SIm*
     Quien es Caín quien es Abel

SOL*    LA*         SIm*   SIm*
Quien ha jodido este abril

------------------------------------------------------------------
------------------------------------------------------------------
--------6--------6----------4--------4--------6--------6----------
------7---7----7---7------5---5----5---5----7---7----7---7--------
----7--------7----------5--------5--------7--------7--------------
------------------------------------------------------------------
        En tus ojos      mil tormentas     Los míos no quieren-

---------------------
-----3-------3-------
---2---2---2---2-----
-0-------0-----------
---------------------
---------------------
-Abrir


Puente con distorsión: Re5  Do#5

Estribillo:


  SI5  SOL5                   RE5
Ya ves, cojo mi mala cara y me voy,
LA5        SI5
De aquí, no sé
SOL5                   RE5     RE5   (DO#5)
Las veces que me reinventé…

SI5     SOL5                     RE5   LA5
Dormir se antoja muy difícil si es … sin ti
SI5    SOL5      RE5 LA5
No solo respirar, es vivir



Puente con rasgueo: Sim La (x4) La


Igual que las estrofas anteriores:

Vete apurando el mal trago
LA espesa conversación
Ya está todo gritado
Mejor para el corazón

Y ahora esta estrofa con las mismas notas pero
con el típico ritmillo de Fito(Cabrales):

Y que lo curen los años
Que lo alivie otros labios
Será mejor partir
Que desangrarnos


Estribillo


Más rápido y distorsión: punteo sobre  Si5  Sol5  Fa#5


SI5                    SOL5
Y he vuelto a ser el idiota
FA#5                SI5
Que llama de madrugada
                     SOL5
Para colgar sin decir nada
FA#5                    SI5      FA#5
A esas horas no hay palabras
SI5                      SOL5
Y te maldigo en mis canciones
RE5                          LA5
Porque no me atrevo a dar la cara
SI5                   SOL5
Y voy barriendo los rincones
FA#5      SI5
De mi alma

Punteo sobre misma base y final.

Dudas, consultas y sobre todo CONSEJOS a xirla_vhm@hotmail.com


Video Clip de No sólo respirar


ACORDES PARA GUITARRA

PIANO UKELELE
Bm
G
A
B5
G5
D5
A5
C#5
A
F#5


TOP 20: Las más tocadas de La Fuga


Toca una Canción al Azar de La Fuga

Acordes

Cerrar
Bm
G
A
B5
G5
D5
A5
C#5
A
F#5

11.49

x

82