Los lunes de octubre
La Fuga
Acordes

Subida por Franco


Más Versiones
Ver. 2

Cambiar Cifrado
Americano Latino

Cambiar Tonalidad
-1 +1

Partir Pantalla Imprimir FAQ

+A
-A


Ver solo la LETRA
 
SOL RE MIm* SOL RE MIm
Hoy me perdí en mil recuerdos
SOL RE MIm DO
que no dejan dormir.
SOL RE MIm
¡Cuánto veneno!


SOL RE MIm SOL RE MIm
Pa´ sonreir , son malos tiempos
SOL RE MIm DO
Oootoño ya está aquí.
SOL RE MIm
¡Cuántos tormentos!


Estribillo:


SOL RE MIm DO SOL RE MIm
¿Dónde coño te escondes, felicidad?
SOl RE MIm DO SOL RE MIm
Los lunes de octubre dónde estarás.
SOL RE MIm DO SOL RE MIm
¿Dónde coño te escondes, felicidad?
SOL RE MIm DO SOL RE MIm
Me condenas a muerte de soledad.


SOL RE MIm SOL RE MIm
Pa´ caminar valen los sueños.
SOL RE MIm DO
Y no me quedan más.
SOL RE MIm
Llévame a hombros.


SOL RE MIm SOL RE MIm
Es tarde ya para tus besos.
SOL RE MIm DO
Fui perro para tí.
SOL RE MIm
No quiero huesos.


Estribillo:


SOL RE MIm DO SOL RE MIm
¿Dónde coño te escondes, felicidad?
SOl RE MIm DO SOL RE MIm
Los lunes de octubre dónde estarás.
SOL RE MIm DO SOL RE MIm
¿Dónde coño te escondes, felicidad?
SOL RE MIm DO SOL RE MIm
Me condenas a muerte de soledad.



Aclaracións:


Verso:

SOl RE MIm SOL RE MIm
----3-------2-------------------3--------2-------------|
---3-3-------2--------0--------3-3--------2--------0---|
-----------2---------0-0----------------2---------0-0--|
---------0----------2---2-------------0----------2---2-|
-------------------2----------------------------2------|
-3---------------2----------3--------------------------|

segue aquí:

SOL RE MIm DO SOL RE MIm
------3-------2-----------------------3-------2-----------|
-----3-3-------2------0------1-------3-3-------2--------0-|
-------------2--------0-----0-0--------------2---------0--|
-----------0----------2--------------------0----------2---|
--------------------2-----3--------------------------2----|
-0-3-------------------------------3----------------0-----|



EStribillo:

(engancha con el verso
SOL RE MIm DO SOL RE MIm siguiente del estribillo)
----3-----2------------0-----3-----2------------------|
----3-----3------------1-----3-----3---------0--------|
----0-----2------0-----0-----0-----2--------0-0-------|
--------0--------2---------------0---------2---2------|
-----------------2---3--------------------2-----------|
---3-----------0------------3-----------0---------0-3-|


Ah¡, quero dicir que a parte de aclaracións está riffeada
como a toco eu.
Parécese á canción pero non creo que acertara totalmente,
podéde-la tocar así ou como coño queirades.x-D´
Saúde e rock n´ roll.
BraiS García González.
Se vedes algún faio ou tendes algunha dúbida
rosmádeslle a cristo ou escribédesme un mail a:

[email protected]


ACORDES PARA GUITARRA

PIANO UKELELE
G
D
Em
Em
C


COMENTARIOS

Aún no hay comentarios,

¡escribe el primero!

Escribe una pregunta, duda o comentario sobre esta canción, te responderemos a la brevedad.

Las más tocadas de La Fuga

Toca una Canción al Azar de La Fuga
G
D
Em
Em
C