Ser yo mismo (Acordes)

La Fuga

Subida por Luisn

Compartir


Imprimir FAQ
+A
-A

Texto

Desplazamiento

Transportador

Color de Fondo

Archivos

-A
+A
A#  F/A  Gm  F  x2
e|---------------------------------------|
B|------------------------------4---3----|
G|---3---5---5---3---5--3----------------|   x 3
D|---------------------------------------|
A|---------------------------------------|
E|---------------------------------------|

-------------------------------------|
-------------------------------------|
----3---5---5---3---5---3---5--------|         x 2
-------------------------------------|
-------------------------------------|
-------------------------------------|



          A#             F/A             Gm             F
e|----------------------------------------------------------------------|
B|----------------------------------------------------------------------|
G|----------------------------------------------------------------------| x 2
D|------------8----------------7---------------5--------------3---------|
A|--------8---------------8---------------5--------------3--------------|
E|---6---------------5---------------3--------------1-------------------|

A#                                 F/A
A veces soy como un reloj sin cuerda
                           Gm
al que le cuesta dar la hora
                      F
llegar a tiempo no se hizo para mí
A#                                F/A
pero hay cosas que olvido fácilmente
                        Gm
de la cabeza se me esfuma
                 F
y vuelan vuelan y se van de aquí.


Cm  F

e|-----------------------------------------3-------------------------------|
B|---4---3------------6---4---3------------------6---4---3-----------------|
G|------------5---3-----------------5-------------------------5---3--------|
D|-------------------------------------------------------------------------|
A|-------------------------------------------------------------------------|
E|-------------------------------------------------------------------------|


A#                               F/A
El sueño que no llega por la noche
                     Gm
viene a joderme la mañana
                    F
¿quién me vendió la Luna en vez del Sol?

e|-----------------------------------------------------------------------|
B|-----------------------------------------------------------------------|
G|--------5b7r5--------3--------2----------------------------------------|
D|---------------------------------------------5------------3------------|
A|-----------------------------------------------------------------------|
E|-----------------------------------------------------------------------|


A#                                      F/A
Buscando un clavo ardiendo al que agarrarme
                     Gm
me guardé tu último beso
                        F
por si alguna vez te olvidas de volver
Cm                 F
si alguna vez te olvidas de volver..

A#                                    F
No quiero que me quites las piedras del camino
Gm                           D#       F
tampoco que dibujes mi destino.
A#                                    F
No quiero que me digas como pudo haber sido
Gm                                D#
sólo pido que me dejes ser yo mismo.


(SOLO) A#  F  Gm  D#  x2


e|-------------------------|       -----------3---4---6---4---3---4---3p4h3-
B|-------------------------|       --2--3--5--------------------------------
G|---------3---2---3-------|  x3   -----------------------------------------
D|----3--------------------|       -----------------------------------------
A|-------------------------|       -----------------------------------------
E|-------------------------|       -----------------------------------------

--------------------------------11--10--8--10--8----------------------------
-----3--------------3--4--6--3----------------------11---10---11---10---8---
--5-----5--3-----3----------------------------------------------------------
--------------5-------------------------------------------------------------
----------------------------------------------------------------------------
----------------------------------------------------------------------------

---------------------------------------------------------------------------|
--10--8--------------------------------------------------------------------|
---------10--8--10--8--7--8--10--8--7--8--7--------7---8---10---8---7---8--|
----------------------------------------------10---------------------------|
---------------------------------------------------------------------------|
---------------------------------------------------------------------------|

Cm                          F
Si alguna vez te olvidas de volver,
Cm                          D
si encuentras otros labios y otra piel
Gm     A#          F
seré tu presa y cazador,
Gm     A#          F
tu copa de más, tu dedo en la llaga
Gm     A#          F
tu eres mi sirena varada
Gm            A#                     F
que me consuela al despertar.


A#                                      F
No quiero que me quites las piedras del camino
Gm                          D#      F
tampoco que dibujes mi destino,
A#                                      F
No quiero que me digas como pudo haber sido
Gm                          D#      F
solo pido que me dejes ser yo mismo.

A#                                      F
No quiero que me quites las piedras del camino
Gm                          D#      F
tampoco que dibujes mi destino,
A#                                      F
No quiero que me digas como pudo haber sido
Gm                          D#      F
solo pido que me dejes ser yo mismo.
D#       F         A#
Ser yo mismo.


Video Clip de Ser yo mismo


ACORDES PARA GUITARRA

PIANO UKELELE
A#
F/A
Gm
F
Cm
D#
D


TOP 20: Las más tocadas de La Fuga


Toca una Canción al Azar de La Fuga

Acordes

Cerrar
A#
F/A
Gm
F
Cm
D#
D

00.34

x

96