De viaje
Los Planetas
Acordes

Subida por pilar


Más Versiones
Ver. 2 Ver. 3 Ver. 4

Cambiar Cifrado
Americano Latino

Cambiar Tonalidad
-1 +1

Partir Pantalla Imprimir FAQ

+A
-A


Ver solo la LETRA

NOTACION

s= slide

------------------------------------------------------------
------------------------------------------------------------


-----
INTRO
-----


1) (x2)


------------------------------------
------------------------------------
--5-5-5-5-5-5-5-5--4-4-4-4-4-4-4-4--
------------------------------------

------------------------------------
------------------------------------
--2-2-2-2-2-2-2-2--0-0-0--2--4-4-4--
------------------------------------


2) (x2)


------------------------------------
------------------------------------
--5-5-5-5-5-5-5-5--4-4-4-4-4-4-4-4--
------------------------------------


-----
VERSO
-----


1) (Podemos irnos juntos lejos de este mundo...)


------------------------------------
------------------------------------
--5-5-5-5-5-5-5-5--4-4-4-4-4-4-4-4--
------------------------------------

------------------------------------
------------------------------------
--2-2-2-2-2-2-2-2--0-0-0--2--4-4-4--
------------------------------------

------------------------------------
------------------------------------
--5-5-5-5-5-5-5-5--4-4-4-4-4-4-4-4--
------------------------------------

------------------------------
------------------------------
--5-5-5--7s9s4--4-4-4--5s7s5--
------------------------------

------------------------------------
------------------------------------
--5-5-5-5-5-5-5-5--4-4-4-4-4-4-4-4--
------------------------------------

------------------------------------
------------------------------------
--2-2-2-2-2-2-2-2--0-0-0--2--4-4-4--
------------------------------------

--0-0-0-0-0-0-0-0--
------------------- (x4)
-------------------
-------------------


2) (No queda nada que prolongue mi parada...)


------------------------------------
--0-0-0-0-0-0-0-0--5-5-5-5-5-5-5-5--
------------------------------------
------------------------------------

------------------------------------
--7-7-7-7-7-7-7-7--5-5-5-5-5-5-5-5--
------------------------------------
------------------------------------

------------------------------------
--0-0-0-0-0-0-0-0--2-2-2-2-2-2-2-2--
------------------------------------
------------------------------------

--------------------
--------------------
--2--2--2--2--2--2--
--------------------


------
CHORUS (Tu y yo de viaje por el sol...) (x2)
------


------------------------------------
------------------------------------
--0-0-0-0-0-0-0-0--5-5-5-5-5-5-5-5--
------------------------------------

------------------------------------
------------------------------------
-------------------2-2-2-2-2-2-2-2--
--2-2-2-2-2-2-2-2-------------------

------------------------------------
------------------------------------
--0-0-0-0-0-0-0-0--5-5-5-5-5-4-5-4--
------------------------------------

------------------------------------
------------------------------------
-------------------2-2-2-2-2-2-2-2--
--2-2-2-2-2-2-2-2-------------------


------------------------------------------------------------
------------------------------------------------------------


ACORDES PARA GUITARRA

PIANO UKELELE


COMENTARIOS

Aún no hay comentarios,

¡escribe el primero!

Escribe una pregunta, duda o comentario sobre esta canción, te responderemos a la brevedad.

Las más tocadas de Los Planetas

Toca una Canción al Azar de Los Planetas