La guerra de las galaxias
Los Planetas
Acordes

Subida por elflacosagrado


Más Versiones
Ver. 2 Ver. 3

HERRAMIENTAS

Cambiar Cifrado
Americano Latino

Cambiar Tonalidad
-1 +1

Partir Pantalla Imprimir FAQ

+A
-A

LETRA CON ACORDES

¿Tu Guitarra esta Afinada? PRUEBA NUESTRO NUEVO AFINADOR


NOTACION

h= hammer on
>= mantener el sonido
*= tocar varias veces esa nota o acorde

------------------------------------------------------------
------------------------------------------------------------

AFINACION

Normal (standar) en ambas guitarras

G1: guitarra 1

G2: guitarra 2

------------------------------------------------------------
------------------------------------------------------------

FORMACION DE ACORDES

D (xx0232)
D/Db (xx0222)
D7 (xx0212)
D? (xx0002)
Em (022000)
G (320003)

------------------------------------------------------------
------------------------------------------------------------


-----
INTRO
-----


--------2-----0--2--------
--3--3-----3--------3-----
-----------------------2--
--0--0-----0-----------0--
--------------------------
--------------------------

--------2-----0--2--------
--2--2-----2--------2-----
-----------------------2--
--0--0-----0-----------0--
--------------------------
--------------------------

--------2-----0--2--------
--1--1-----1--------1-----
-----------------------2--
--0--0-----0-----------0--
--------------------------
--------------------------

--------2-----0--2--------
--0--0-----0--------0-----
-----------------------0--
--0--0-----0-----------0--
--------------------------
--------------------------


-------
VERSO 1 (Y qué más puedes hacerme...)
-------


Tocar lo mismo que en Intro


--------
CHORUS 1 (Si vas a disfrutar...)
--------


G>
-----5--------5--------------5--------5-----
--------7--------7--------------7--------7--
--7--------7--------7--7--7--------7--------
--0-----------------0--0--0-----------------
--------------------------------------------
--------------------------------------------

Em>
-----------0--------0--------------0--------0--------
--------------7--------7--------------7--------7-----
--7--7--7--------7--------7--7--7--------7--------7--
--0--0--0-----------------0--0--0-----------------0--
-----------------------------------------------------
-----------------------------------------------------


-------------
POST-CHORUS 1
-------------


1)

D>
--0--2-----0--2-----------
--------3--------3--------
--------------------2-----
--------------------0-----
--------------------------
--------------------------

D/Db>
--------2-----0--2--------
--2--2-----2--------2-----
-----------------------2--
--0--0-----0-----------0--
--------------------------
--------------------------

D7>
--------2-----0--2--------
--1--1-----1--------1-----
-----------------------2--
--0--0-----0-----------0--
--------------------------
--------------------------

D?>
--------2-----0--2--------
--0--0-----0--------0-----
-----------------------0--
--0--0-----0-----------0--
--------------------------
--------------------------


2)

D>
--------2-----0--2--------
--3--3-----3--------3-----
-----------------------2--
--0--0-----0-----------0--
--------------------------
--------------------------


D/Db>
--------2-----0--2--------
--2--2-----2--------2-----
-----------------------2--
--0--0-----0-----------0--
--------------------------
--------------------------

D7>
--------2-----0--2--------
--1--1-----1--------1-----
-----------------------2--
--0--0-----0-----------0--
--------------------------
--------------------------

D?>
--------2-----0--2--------
--0--0-----0--------0-----
-----------------------0--
--0--0-----0-----------0--
--------------------------
--------------------------


-------
VERSO 2 (Esto que me apunta de espaldas...)
-------


Tocar lo mismo que en la parte 2) del Post-chorus 1


--------
CHORUS 2 (Luchando de verdad...)
--------


G
-----5--------5--------------5--------5-----
--------7--------7--------------7--------7--
--7--------7--------7--7--7--------7--------
--0--------0--------0--0--0--------0--------
--------------------------------------------
--------------------------------------------

Em
-----------0--------0--------------0--------0-----------
--------------7--------7--------------7--------7--------
--7--7--7--------7--------7--7--7--------7--------7--0--
--0--0--0--------0--------0--0--0--------0--------0--0--
--------------------------------------------------------
--------------------------------------------------------


-------------
POST-CHORUS 2
-------------


1)


G1

--0h2--0h2--0--2--0--
--3----3----3--3--3--
--2----2----2--2--2--
--0----0----0--0--0--
---------------------
---------------------

G2

--10--10--10--10--10--10--10-----
--10--10--10--10--10--10--10-----
------------------------------0--
---0---0---0---0---0---0---0--0--
---------------------------------
---------------------------------



G1

--0h2--0h2--0--2--0--
--2----2----2--2--2--
--2----2----2--2--2--
--0----0----0--0--0--
---------------------
---------------------

G2

--------------------------
--2--2--2--2--2--2--2-----
--2--2--2--2--2--2--2--0--
--0--0--0--0--0--0--0--0--
--------------------------
--------------------------



G1

--0h2--0h2--0--2--0--
--1----1----1--1--1--
--2----2----2--2--2--
--0----0----0--0--0--
---------------------
---------------------

G2

--------------------------
--1--1--1--1--1--1--1-----
--2--2--2--2--2--2--2--0--
--0--0--0--0--0--0--0--0--
--------------------------
--------------------------



G1

--0h2--0h2--0--2--0--
--0----0----1--1--1--
--0----0----2--2--2--
--0----0----0--0--0--
---------------------
---------------------

G2
--------------------------
--0--0--0--0--0--0--0-----
--0--0--0--0--0--0--0--0--
--0--0--0--0--0--0--0--0--
--------------------------
--------------------------



2)


G1

--2--2--2----0--2--0--2--0--
--3--3--3----3--3--3--3--3--
--2--2--2----2--2--2--2--2--
--0--0--0----0--0--0--0--0--
----------------------------
----------------------------

G2

--10--10--10--10--10--10--10-----
--10--10--10--10--10--10--10-----
------------------------------0--
---0---0---0---0---0---0---0--0--
---------------------------------
---------------------------------



G1

--2--2--2----0--2--0--2--0--
--2--2--2----2--2--2--2--2--
--2--2--2----2--2--2--2--2--
--0--0--0----0--0--0--0--0--
----------------------------
----------------------------

G2

--------------------------
--2--2--2--2--2--2--2-----
--2--2--2--2--2--2--2--0--
--0--0--0--0--0--0--0--0--
--------------------------
--------------------------



G1

--2--2--2----0--2--0--2--0--
--1--1--1----1--1--1--1--1--
--2--2--2----2--2--2--2--2--
--0--0--0----0--0--0--0--0--
----------------------------
----------------------------

G2

--------------------------
--1--1--1--1--1--1--1-----
--2--2--2--2--2--2--2--0--
--0--0--0--0--0--0--0--0--
--------------------------
--------------------------



G1

--2--2--2----0--2--0--2--0--
--0--0--0----0--0--0--0--0--
--0--0--0----0--0--0--0--0--
--0--0--0----0--0--0--0--0--
----------------------------
----------------------------

G2

--------------------------
--0--0--0--0--0--0--0-----
--0--0--0--0--0--0--0--0--
--0--0--0--0--0--0--0--0--
--------------------------
--------------------------


-------
VERSO 3 (Lo que quieras darme por mi alma...)
-------


Tocar lo mismo que en el punto 2) del Post-chorus 2


--------
CHORUS 3 (Si tengo que pagar...)
--------


G
-----5--------5--------------5--------5-----
--------7--------7--------------7--------7--
--7--------7--------7--7--7--------7--------
--0--------0--------0--0--0--------0--------
--------------------------------------------
--------------------------------------------

Em
-----------5--------5--------------5--------5-----------
--------------8--------8--------------8--------8--------
--7--7--7--------7--------7--7--7--------7--------7--0--
--0--0--0--------0--------0--0--0--------0--------0--0--
--------------------------------------------------------
--------------------------------------------------------


-------------
POST-CHORUS 3
-------------


1)


G1

--2--2--2----0--2--0--2--0--
--3--3--3----3--3--3--3--3--
--2--2--2----2--2--2--2--2--
--0--0--0----0--0--0--0--0--
----------------------------
----------------------------

G2

--------------------------
--3--3--3--3--3--3--3-----
--2--2--2--2--2--2--2--0--
--------------------------
--------------------------
--------------------------



G1

--2--2--2----0--2--0--2--0--
--2--2--2----2--2--2--2--2--
--2--2--2----2--2--2--2--2--
--0--0--0----0--0--0--0--0--
----------------------------
----------------------------

G2

--------------------------
--2--2--2--2--2--2--2-----
--2--2--2--2--2--2--2--0--
--------------------------
--------------------------
--------------------------



G1

--2--2--2----0--2--0--2--0--
--1--1--1----1--1--1--1--1--
--2--2--2----2--2--2--2--2--
--0--0--0----0--0--0--0--0--
----------------------------
----------------------------

G2

--------------------------
--1--1--1--1--1--1--1-----
--2--2--2--2--2--2--2--0--
--------------------------
--------------------------
--------------------------



G1

--2--2--2----0--2--0--2--0--
--0--0--0----0--0--0--0--0--
--0--0--0----0--0--0--0--0--
--0--0--0----0--0--0--0--0--
----------------------------
----------------------------

G2

--------------------------
--0--0--0--0--0--0--0-----
--0--0--0--0--0--0--0--0--
--------------------------
--------------------------
--------------------------



2)


G1

--2--2--2----0--2--3--5--3--
--3--3--3----3--3--3--3--3--
--2--2--2----2--2--2--2--2--
--0--0--0----0--0--0--0--0--
----------------------------
----------------------------

G2

--------------------------
--3--3--3--3--3--3--3-----
--2--2--2--2--2--2--2--0--
--------------------------
--------------------------
--------------------------



G1

--2--2--2----0--2--3--5--3--
--2--2--2----2--2--2--2--2--
--2--2--2----2--2--2--2--2--
--0--0--0----0--0--0--0--0--
----------------------------
----------------------------

G2

--------------------------
--2--2--2--2--2--2--2-----
--2--2--2--2--2--2--2--0--
--------------------------
--------------------------
--------------------------



G1

--2--2--2----0--2--3--5--3--
--1--1--1----1--1--1--1--1--
--2--2--2----2--2--2--2--2--
--0--0--0----0--0--0--0--0--
----------------------------
----------------------------

G2

--------------------------
--1--1--1--1--1--1--1-----
--2--2--2--2--2--2--2--0--
--------------------------
--------------------------
--------------------------



G1

--2--2--2----0--2--0--2--0--
--0--0--0----0--0--0--0--0--
--0--0--0----0--0--0--0--0--
--0--0--0----0--0--0--0--0--
----------------------------
----------------------------

G2

--------------------------
--0--0--0--0--0--0--0-----
--0--0--0--0--0--0--0--0--
--------------------------
--------------------------
--------------------------


-------
VERSO 4 (Esta vez este soldado no va a pelear...)
-------


Tocar lo mismo que en el punto 2) del Post-chorus 2


--------
CHORUS 4 (Lo pido por cambiar...)
--------


G
-----5--------5--------------5--------5-----
--------7--------7--------------7--------7--
--7--------7--------7--7--7--------7--------
--0--------0--------0--0--0--------0--------
--------------------------------------------
--------------------------------------------

Em
--------------------------------------------------
-----8--8--8--8--7--7--7-----8--8--8--8--7--7--7--
--7--7--7--7--7--7--7--7--7--7--7--7--7--7--7--7--
--0-----------------------0-----------------------
--------------------------------------------------
--------------------------------------------------


-----
FINAL
-----


G1

--2--2--2----0--2--3--5--3--
--3--3--3----3--3--3--3--3--
--2--2--2----2--2--2--2--2--
--0--0--0----0--0--0--0--0--
----------------------------
----------------------------

--2--2--2----0--2--3--5--3--
--2--2--2----2--2--2--2--2--
--2--2--2----2--2--2--2--2--
--0--0--0----0--0--0--0--0--
----------------------------
----------------------------

--2--2--2----0--2--3--5--3--
--1--1--1----1--1--1--1--1--
--2--2--2----2--2--2--2--2--
--0--0--0----0--0--0--0--0--
----------------------------
----------------------------

--2--2--2----0--2--0--2--0--
--0--0--0----0--0--0--0--0--
--0--0--0----0--0--0--0--0--
--0--0--0----0--0--0--0--0--
----------------------------
----------------------------


G2

--10---
--15*--
------- (tocar esto un millón de veces)
-------
-------
-------


------------------------------------------------------------
------------------------------------------------------------


-------------------------------------
LA GUERRRA DE LAS GALAXIAS (acústico)
-------------------------------------


------------------------------------------------------------

FORMACION DE ACORDES

D (xx0232)
D/Db (xx0222)
D5 (xx0235)
D7 (xx0212)
D7sus4 (xx0213)
D7/A (xx0215)
Dsus2 (xx0230)
Dsus2/Db (xx0220)
Dsus2/C (xx0210)
Dsus4 (xx0233)
Ddim/Bd (xx0223)
Ddim/Db (xx0225)
D? (xx0002)
X? (xx0000)
Em (022000)
G (320003)

------------------------------------------------------------

PROGRESIONES DE ACORDES


Progresión D (P-D)

D Dsus2 D Dsus2 D Dsus2


Progresión D/Db (P-D/Db)

D/Db Dsus2/Db D/Db Dsus2/Db D/Db Dsus2/Db


Progresión D7 (P-D7)

D7 Dsus2/C D7 Dsus2/C D7 Dsus2/C


Progresión D? (P-D?)

D? X? D? X? D? X?

------------------------------------------------------------


-----
INTRO
-----


D D/Db D7 D?


--------------
VERSO/CHORUS 1
--------------


D D/Db D7 D?
¿Y qué más puedes hacerme? Me vas a quemar

D D/Db D7 D?
el armario, el apartamento, toda la ciudad,

G Em
si vas a disfrutar, ya puedes empezar


-------------
POST-CHORUS 1 (x2)
-------------


D D/Db D7 D?


--------------
VERSO/CHORUS 2
--------------


D D/Db D7 D?
Esto que me apunta de espaldas

D D/Db D7 D?
en algún lugar de la galaxia

G Em
Luchando de verdad contra el Imperio


-------------
POST-CHORUS 2
-------------


Dsus2 D Dsus2 D Dsus2 D Dsus2

Dsus2/Db D/Db Dsus2/Db D/Db Dsus2/Db D/Db Dsus2/Db

Dsus2/C D7 Dsus2/C D7 Dsus2/C D7 Dsus2/C

X? D? X? D? X? D? X?



D Dsus2 D Dsus2 D Dsus2

D/Db Dsus2/Db D/Db Dsus2/Db D/Db Dsus2/Db

D7 Dsus2/C D7 Dsus2/C D7 Dsus2/C

D? X? D? X? D? X?


--------------
VERSO/CHORUS 3
--------------


P-D P-D/Db P-D7 P-D?
Lo que quieras darme por mi alma

P-D P-D/Db P-D7 P-D?
Qué más puedo dar si no me queda nada

G Em
Si tengo que pagar mejor empiezo ya


-------------
POST-CHORUS 3
-------------


D Dsus2 D Dsus2 D Dsus2

D/Db Dsus2/Db D/Db Dsus2/Db D/Db Dsus2/Db

D7 Dsus2/C D7 Dsus2/C D7 Dsus2/C

D? X? D? X? D? X?



D Dsus2 D Dsus4 D5 Dsus4

D/Db Dsus2/Db D/Db Ddim/Bd Ddim/Db Ddim/Bd

D7 Dsus2/C D7 D7sus4 D7/A D7sus4

D? X? D? X? D? X?


--------------
VERSO/CHORUS 4
--------------


P-D P-D/Db P-D7 P-D?
Esta vez este soldado no va a pelear

P-D P-D/Db P-D7 P-D?
No estaría mal si fuese yo quien gana al final

G Em
lo pido por cambiar que no sea siempre igual


-----
FINAL
-----


D Dsus2 D Dsus4 D5 Dsus4

D/Db Dsus2/Db D/Db Ddim/Bd Ddim/Db Ddim/Bd

D7 Dsus2/C D7 D7sus4 D7/A D7sus4

D? X? D? X? D? X?


------------------------------------------------------------
------------------------------------------------------------

////////////////// ¿Te Animas? Sube una canción a este sitio. //////////////////

ACORDES PARA GUITARRA

PIANO UKELELE
G2
Em
G
Em
G
D
Dsus2
D/Db
Dsus2/Db
D7
DSUS2/C
D
Dsus4
D5
D7sus4


COMENTARIOS

Aún no hay comentarios,

¡escribe el primero!

Escribe una pregunta, duda o comentario sobre esta canción, te responderemos a la brevedad.

Las canciones más tocadas de Los Planetas

Toca una Canción al Azar de Los Planetas
G2
Em
G
Em
G
D
Dsus2
D/Db
Dsus2/Db
D7
DSUS2/C
D
Dsus4
D5
D7sus4

20.38


Nuestro servidor se demoró 0.5 segundos en generar esta página. Que velocidad!