La Playa
Los Planetas
Acordes

Subida por Raul



Otras Versiones
Ver. 2

ENTRENA TU OÍDO MUSICAL CON ESTE JUEGO. ¿QUÉ ACORDE ES?. CLIC AQUÍ PARA JUGAR

Cambiar Cifrado
Americano Latino

Cambiar Tonalidad
-1 +1

Partir Pantalla Imprimir FAQ

Ver solo la LETRA

+A
-A
LETRA CON ACORDES
NOTACION

h= hammer on
B= bend
s= slide
>= mantener el sonido
*= tocar varias veces esa nota o acorde

------------------------------------------------------------
------------------------------------------------------------

AFINACION

Normal (standar)

------------------------------------------------------------
------------------------------------------------------------

FORMACION DE ACORDES

A/B (002420)
Asus2 (002400)
Asus (000430)
Bm? (xx0432)
C#m? (xx0654)
Em/B (022400)
E(IV) (xx0454)

------------------------------------------------------------
------------------------------------------------------------



-----
INTRO
-----



G1: A/B Asus2 Asus A/B Asus2 Asus>



-------
VERSO 1
-------



1)

A/B> Em/B Bm?
El verano que estuviste en la playa


G2 [Efectos]
---------------0>--
---------------3>--
-----9s6--6s4--4>-- (x3)
---------------0>--
--7----------------
-------------------


Em/B Bm? A/B Bm?
Y yo estaba sólo en casa sin saber lo que pasaba



2)

Asus Em/B
Y no me llamaste ni una sóla vez


G2 [Efectos]

--0>--
--3>--
--4>-- (rasguear de abajo a arriba)
--0>--
------
------

--------------
--------5-----
-----------6--
-----6--------
--7-----------
--------------



---------------------------------------
G1: A/B Asus2 Asus A/B Asus2 Asus>
---------------------------------------



-------
VERSO 2
-------



1)

A/B> Em/B Bm?
Y me preguntaba que estarías haciendo


G2 [Efectos]
---------------0>--
---------------3>--
-----9s6--6s4--4>-- (x3)
---------------0>--
--7----------------
-------------------


Em/B Bm? A/B Bm?
Y me mataban los celos cada vez que alguno de éstos



2)

Asus Em/G A/B Asus2 A/B
Me decía cualquier cosa sobre ti


G2 [Efectos]

--0>--
--3>--
--4>-- (rasguear de abajo a arriba)
--0>--
------
------

-----------------------
--------5--------------
-----------6----4s6b>--
-----6-----------------
--7--------------------
-----------------------



------------
PRE-CHORUS 1
------------



Bm? Bm? --s--> C#m? Bm?
Y me fui hasta la playa para ver lo que pasaba


G2 [Con efectos]

------4-4-4----------0---4-4-4---------
--5*--5-5-5--5-5-5---5*--5-5-5--5-5-5--
---------------------------------------
---------------------------------------
---------------------------------------
---------------------------------------



Bm? --s--> C#m? Bm? Bm?
Y te estuve persiguiendo comprobando que era cierto


G2 [Con efectos]

--------------------------4-4-4---0*--
--5-5-5-5--5*--5-5-5-5-5--5-5-5---5---
--------------------------------------
--------------------------------------
--------------------------------------
--------------------------------------



Bm? Asus Em/B
Todo lo que me decían sobre tí


G2 [Con efectos]

--4-4--------------------
-------0-0-0-------------
-------4-4-4--13*--13s?--
-------------------------
--------------11---11s?--
-------------------------



Em/B


G2 [Sonido limpio]

--0--2--0--0--2--0--
--------------------
--------------------
--------------------
--------------------
--------------------



--------
CHORUS 1
--------



1)

Bm? Em/B Bm? E(IV)
Fue un verano que fue una pesadilla


G2 [Efectos]

--5-------7------5----5----5-------7-7-7--7-7--5--
--7(x8)---5(x5)----5--5----7(x8)---5-5-5----------
--------------------------------------------------
--------------------------------------------------
--------------------------------------------------
--------------------------------------------------



2)

A/B Asus A/B Asus A/B Asus>
Si me acuerdo, me duele todavía


G2 [Sonido limpio]
(x2)

------------------------------17--------17--------17-----
--14--------14--------14---------17--------17------------
-----14--------14-------------------14--------14-----14--
--------14--------14-----14------------------------------
---------------------------------------------------------
---------------------------------------------------------


------------------------------17>--
--14--------14--------14------17>--
-----14--------14-------------14>--
--------14--------14-----14---14>--
------------------------------0>---
------------------------------0>---



-------
VERSO 3 (Y pensaba en destrozarte...)
-------



Tocar lo mismo que en Verso 2



------------
PRE-CHORUS 2
------------



G1

Bm? Bm? A/B Bm?
Porque nunca pasa nada, nada es como esperaba


Bm? --s--> C#m? Bm? Bm?
Cada vez que intento hacerlo apareces justo en medio


Em/B Asus Em/B
Y salta por los aires cuanto planeé



G2 (Tocar lo mismo que en Pre-chorus 1)



--------
CHORUS 2 (He intentado olvidarlo...)
--------



Tocar lo mismo que en Chorus 1



----
SOLO (x2)
----



G1

--0-*---0--0--
--2-----0--2--
--4-----4--4--
--2-----2--2--
--0-----0--0--
--0-----0--0--

G2

--15s17--17--15h17--17s19--17s15--15--
--------------------------------------
--------------------------------------
--------------------------------------
--------------------------------------
--------------------------------------



G1

--2*---0--2--
--3----3--3--
--4----4--4--
--0----0--0--
-------------
-------------

G2

--17--17--15h17--17s19--17s15--15--
-----------------------------------
-----------------------------------
-----------------------------------
-----------------------------------
-----------------------------------



G1

--0-*---0--0--
--2-----0--2--
--4-----4--4--
--2-----2--2--
--0-----0--0--
--0-----0--0--

G2

-----------------------------------
--17--17--15h17--17s19--17s15--15--
-----------------------------------
-----------------------------------
-----------------------------------
-----------------------------------



G1

--2*---2--3--2--
--3----3--3--3--
--4----0--0--0--
--0----0--0--0--
----------------
----------------

G2

--------
--------
--16b>--
--------
--------
--------
xxxxxxxx



La segunda vez que toques el solo en vez de tocar al
final lo que pone en la zona marcada con ´x´ toca esto:

Asus

----------------
----------------
--16------------
------17--19b>--
----------------
----------------



--------
CHORUS 3 (Fue un verano...)
--------



Tocar lo mismo que en Chorus 1



-----
FINAL
-----



A/B Bm? A/B>
(x2)
--17---------------19--------------------¡-17>--
------17------17------17-----------------¡-17>--
----------14--------------14---16h18--14-¡-14>--
-----------------------------------------¡-14>--
-----------------------------------------¡-0>---
-----------------------------------------¡-0>---



------------------------------------------------------------
------------------------------------------------------------


-------------------
LA PLAYA (acustico)
-------------------


--------------------

FORMACION DE ACORDES

A/B (002420)
Asus2 (002400)
Asus (000430)
Bm? (xx0432)
C#m? (xx0654)
D? (xx0032)
Dsus (xx0033)
Em/B (022400)
E(IV) (xx0454)

--------------------


-----
INTRO
-----


A/B Asus2 Asus A/B Asus2 Asus>


-------
VERSO 1
-------


A/B> Em/B Bm?
El verano que estuviste en la playa


Em/B Bm? A/B Bm?
Y yo estaba sólo en casa sin saber lo que pasaba


Asus Em/B
Y no me llamaste ni una sóla vez


------------------------------------
A/B Asus2 Asus A/B Asus2 Asus>
------------------------------------


-------
VERSO 2
-------


A/B> Em/B Bm?
Y me preguntaba que estarías haciendo


Em/B Bm? A/B Bm?
Y me mataban los celos cada vez que alguno de éstos


Asus Em/G A/B Asus2 A/B
Me decía cualquier cosa sobre ti


------------
PRE-CHORUS 1
------------


Bm? Bm? --s--> C#m? Bm?
Y me fui hasta la playa para ver lo que pasaba


Bm? --s--> C#m? Bm? Bm?
Y te estuve persiguiendo comprobando que era cierto


Bm? Asus Em/B
Todo lo que me decían sobre tí


--------
CHORUS 1
--------


Bm? Em/B Bm? E(IV)
Fue un verano que fue una pesadilla


A/B Asus A/B Asus A/B Asus>
Si me acuerdo, me duele todavía


-------
VERSO 3
-------


A/B> Em/B Bm?
Y pensaba en destrozarte todo el tiempo


Em/B Bm? A/B Bm?
Hasta que te oí diciendo cuanto te hechado de menos


Asus Em/B A/B Asus2 A/B
Y que no te habías podido despedir


------------
PRE-CHORUS 2
------------


Bm? Bm? A/B Bm?
Porque nunca pasa nada, nada es como esperaba


Bm? --s--> C#m? Bm? Bm?
Cada vez que intento hacerlo apareces justo en medio


Em/B Asus Em/B
Y salta por los aires cuanto planeé


--------
CHORUS 2
--------


Bm? Em/B Bm? E(IV)
He intentado olvidarme cada día


A/B Asus A/B Asus A/B Asus
Y acordándome el resto de mi vida


----
SOLO
----


A/B Asus2 A/B Bm? Asus Bm?

A/B Asus2 A/B Bm? D? Dsus D?

A/B Asus2 A/B Bm? Asus Bm?

A/B Asus2 A/B Asus


--------
CHORUS 1
--------


Bm? Em/B Bm? E(IV)
Fue un verano que fue una pesadilla


A/B Asus A/B Asus
Si me acuerdo, me duele todavía, me duele todavía


-----
FINAL
-----


A/B Bm? (x2) A/B>


------------------------------------------------------------
------------------------------------------------------------


ACORDES PARA GUITARRA

PIANO UKELELE
B
G
A/B
Asus2
Asus
Em/B
Bm
G2
Em/G
E
D
Dsus


COMENTARIOS

Aún no hay comentarios,

¡escribe el primero!

Para hacer una pregunta o dejar un comentario sobre esta canción, debes estar LOGUEADO

Las canciones más tocadas de Los Planetas

Toca una Canción al Azar de Los Planetas
B
G
A/B
Asus2
Asus
Em/B
Bm
G2
Em/G
E
D
Dsus

Nuestro servidor se demoró 0.55 segundos en generar esta página. No esta nada mal!