La que vive en la carrera
Los Planetas
Acordes

Subida por Jaromo


Más Versiones
Ver. 2 Ver. 3

Cambiar Cifrado
Americano Latino

Cambiar Tonalidad
-1 +1

Partir Pantalla Imprimir FAQ

+A
-A


Ver solo la LETRA
Intro: Guitarra 1

---4-------5------7--------
---4-------5------7--------
---5-------6------8--------
---6-------7------9--------
---6-------7------9--------
---4-------5------7--------

Intro: Guitarra 2

----------------------------------------------------
----------------------------------------------------
------------------6---8-----------------8---6-------
-6-6---7--7---9------------6-6---7--7------------9--
----------------------------------------------------
----------------------------------------------------

Verso y Coro: Guitarra 1 (Esta parte se repite toda la cancion)

4-------0------5-------0-------7------0-------5------
4-------0------5-------0-------7------0-------5------
5-------1------6-------1-------8------1-------6------
6-------2------7-------2-------9------2-------7------
6-------2------7-------2-------9------2-------7------
4-------0------5-------0-------7------0-------5------

Repite Intro
Repite Verso
Repite Intro
Repite Verso
Fin

Punteo Guitarra 2 (Despues de el primer verso)
** Cuando comienza a cantar

---------------------2---------------------4-----4--*---7-7-7-7-7-7
---------------2-4-5---5-2-4----5-5--4-5-7---7-5----*-5-5-5-5-5-5-5
------------------------------------------------------------------
---6---7----------------------------------------------------------
------------------------------------------------------------------
------------------------------------------------------------------


ACORDES PARA GUITARRA

PIANO UKELELE


COMENTARIOS

Aún no hay comentarios,

¡escribe el primero!

Escribe una pregunta, duda o comentario sobre esta canción, te responderemos a la brevedad.

Las más tocadas de Los Planetas

Toca una Canción al Azar de Los Planetas