Maniobra de evasión
Los Planetas
Acordes

Subida por angosturense


Más Versiones
Ver. 2 Ver. 3 Ver. 4 Ver. 5

Cambiar Cifrado
Americano Latino

Cambiar Tonalidad
-1 +1

Partir Pantalla Imprimir FAQ

+A
-A
--------------

INTRO+ESTROFA
--------------

G----------------------------------------------
D----------------------------------------------
A------------------6-6-6-----------------------
E--6-6-6-6-6-4-4-4-----------------------------


G---------------------------------------------------------------------
D---------------------------------------------------------------------
A---------------------3-3-3-3-3-3-3-3---3-5-6-6-6-6-6-6-6-6-6-6-------
E-6-6-6-6-6-6-6-6-6-6-----------------6-------------------------------


G----------------------------------------------------
D----------------------------------------------------
A--8-8-8-8-6-6-6-6----------------------------6-6-6--
E-------------------6-6-6-6-6-6-6-6-6-6-4-4-4--------

-----------
ESTRIBILLO
-----------

G--------------------------------------------------------------
D---5----------------------------------------------------------
A-5---5-3-5-6-6-6-6-6-6-6-6-6-------------10-8---10------------
E------------------------------6-6-6-6-6-------8-----6-6-6-6-6-


G--------------------------------------------------------------
D---5----------------------------------------------------------
A-5---5-3-5-3-3-3-3-3-3---3-6-6-6-6-6-6-------6-6-6------------
E-----------------------6---------------4-4-4--------6-6-6-----

-----------------
ULTIMO ESTRIBILLO
-----------------

G------------------------------------------------------------------------
D---5--------------------------------------------------------------------
A-5---5-3-5-3-3-3-3-3-3---3-4-5-5-5-5-3-5-5-6-6-6-6-6-6-------6-6-6------
E-----------------------6-------------------------------4-4-4-------6-6-6


ACORDES PARA GUITARRA

PIANO UKELELE


COMENTARIOS

Aún no hay comentarios,

¡escribe el primero!

Escribe una pregunta, duda o comentario sobre esta canción, te responderemos a la brevedad.

Las más tocadas de Los Planetas

Toca una Canción al Azar de Los Planetas