Rey sombra
Los Planetas
Acordes

Subida por cesario


Más Versiones
Ver. 2 Ver. 3

Cambiar Cifrado
Americano Latino

Cambiar Tonalidad
-1 +1

Partir Pantalla Imprimir FAQ

+A
-A


Ver solo la LETRA
NOTACION


s= slide
>= mantener el sonido

------------------------------------------------------------
------------------------------------------------------------


-----------
INTRO/VERSO
-----------


---------------------------------------------------
---------------------------------------------------
--7-7-7--7-7-7--7-7s12--12-12-12--12-12-12--12-12--
---------------------------------------------------

----------------------------------------------------------
----------------------------------------------------------
--14-14-14--14-14-14--14-14--12-12-12--12-12-12--12-12s7--
----------------------------------------------------------

----------------------------------------
----------------------------------------
--7-7-7--7-7-7--7-7--0-0-0--0-0-0--0-0--
----------------------------------------

--------------------------------------------
--------------------------------------------
----------------9-7--0-0-0--0-0-0--14-12s7--
--7-7-7--7-7-7------------------------------


Este es básicamente el riff. Sólo hay un pequeño cambio:


*[Minutaje del Cd= 00:29/00:33]

---------------------------------------------------------
-------------------14-13---------------------------------
--14-14-14--14-14--------14--12-12-12-12--14-12-12-14s7--
---------------------------------------------------------


------
CHORUS
------


1) (Qué puedes ofrecerme que no haya probado...)


----------------------------------------------------
----------------------------------------------------
--16-16-16-16-16-16-16-16--14-14-14-14-14-14-14-14--
----------------------------------------------------

----------------------------------------------------
----------------------------------------------------
--12-12-12-12-12-12-12-12--14-14-14-14-14-14-14-14--
----------------------------------------------------


2) (Mientras fuera en la calle...)


------------------------------------
------------------------------------
--0-0-0-0-0-0-0-0--2-2-2-2-2-2-2-2--
------------------------------------


3)


-------------------
------------------- (x3)
--0-0-0-0-0-0-0-0--
-------------------

---------------------
---------------------
--0>-------7s12s2s7--
------12>------------


------------------------------------------------------------
------------------------------------------------------------


ACORDES PARA GUITARRA

PIANO UKELELE


COMENTARIOS

Aún no hay comentarios,

¡escribe el primero!

Escribe una pregunta, duda o comentario sobre esta canción, te responderemos a la brevedad.

Las más tocadas de Los Planetas

Toca una Canción al Azar de Los Planetas