Kalimotxo
los Porretas
Acordes

Subida por kolia


Más Versiones
Ver. 2 Ver. 3

Cambiar Cifrado
Americano Latino

Cambiar Tonalidad
-1 +1

Partir Pantalla Imprimir FAQ

+A
-A
Y esta es la segunda que saco, que tambien pienso que esta
mu bien :P
Weno es d las q mas m gustan d porretas, ai va:

---------------------

e||-------------------------------||
B||---12---10---12---10---12-10---||
G||---11----9---11----9---11--9---|| X6
D||-------------------------------||
A||-------------------------------||
E||-------------------------------||

MI

MI SI LA SI
Vino tinto, coca cola y una raja de limón pa quien les mola
MI SI LA SI
Mucho hielo, bien picado, para que después no pueda hacerte daño..

e||-------------------------------------||
B||-------------------------------------||
G||-------------------------------------||
D||-------------------------------------|| X3
A||-------------2-2-222-0-0-0-2-4-2-222-||
E||--0-0--0-3-4-------------------------||

MI SI LA SI
Fue en el verano del 93, (fue en el verano del 93!!),
MI SI LA SI
todo anunciaba que iba a estar muy bien,(lalalaralala!!)
MI SI LA SI
Concierto en la casa okupada (ooohooh!!)
MI SI LA SI
con los 37 y los Andanada (con los 37 y los Andanada!!)

LA SI
Y así yo te conocí...
MI SI LA SI
Kalimotxo Ooh... nos gusta blanco y tinto
MI SI LA
Kalimotxo Ooh... nos entra muy bien
MI SI LA SI
Kalimotxo Ooh... los sábados y los domingoS
MI SI LA
Kalimotxo Ooh... los lunes tambien


(lo mismo de siempre)

Darme pelas que voy a por él, rascaros los bolsillos
Vaya atasco que me voy a comer, con crestas y flequillos
Un punki metido en un cubo, arrascando el fondo con un cartón
Pillar que esto esta cojonudo, Kalimotxo fresco con buen sabor

e||-------------------------------------||
B||--------9--------7--------5---0-5-0--||
G||-----99-------88-------66------------||
D||-999------999------777------7--------||
A||-------------------------------------||
E||-------------------------------------||


Salimos de aquel concierto con la geta colorada -(AKI ES EL
Felices y muy contentos cagando negro toda la semana - RIFF D ARRIBA)


LA SI
Y así yo te conocí...
MI SI LA SI
Kalimotxo Ooh... nos gusta blanco y tinto
MI SI LA
Kalimotxo Ooh... nos entra muy bien
MI SI LA SI
Kalimotxo Ooh... los sábados y los domingoS
MI SI LA
Kalimotxo Ooh... los lunes tambien


MI SI
Kalimotxo,
MI SI
mamarracho,
MI SI
vas borracho
MI SI
de vinacho...
MI
Kalimotxo!
-----------------------
Eso es todo, escuxarla q seguro q os suena bien, x lo mnos a mi...
esto va dedicados al trio cañitas, cuanto emos podio privar
juntos..XD

Comentarios: [email protected]


ACORDES PARA GUITARRA

PIANO UKELELE
E
B
A


COMENTARIOS

Aún no hay comentarios,

¡escribe el primero!

Escribe una pregunta, duda o comentario sobre esta canción, te responderemos a la brevedad.

Las más tocadas de los Porretas

Toca una Canción al Azar de los Porretas
E
B
A