Si lo sé me meo (Acordes)

los Porretas

Subida por Matucho

Compartir


Imprimir FAQ
+A
-A

Texto

Desplazamiento

Transportador

Color de Fondo

Archivos

-A
+A
Hola!! esta es la primera cancion q saco, y yo creo q esta mu bien...
weno pues nada ai la dejo, comentarios a:
       [email protected]



 SOL                     RE
Viernes son las doce, y yo estoy que me duermo,
 MI                   DO
tanto fumeteo que me ha entrado el muermo.
 SOL                     RE
Tomaremos otra, que es viernes por la noche,
 MI                   DO
siempre me dejan sopa dentro del coche.

SOL RE MI DO

 SOL                     RE
A las cuatro de la mañana ¿donde se habrán metido?
 MI                   DO
Que me estoy meando, que estoy muerto de frío,
 SOL                     RE
no sé donde estoy, ¿de quien es el coche rojo?
 MI                   DO
Que me fui a mear y al volver me metí en otro.

SOL         RE      MI           DO
Solo fui a mear, y casi acabo en la comisaría.
Solo fui a mear, y me metí en un coche un policía. (ASI TODA LA CANCION)


e||----------------------------------------------------||
B||----------------------------------------------------||
G||--12--11-------12--11-------12--11--12--11--9-------||
D||----------12-----------12----------------------12---||
A||----------------------------------------------------||
E||----------------------------------------------------||

e||----------------------------------------------------||
B||----------------------------------------------------||
G||---------9--0-0----9--0-0----9--0--9--7-------------||
D||-----------------------------------------10---------||
A||----------------------------------------------------||
E||----------------------------------------------------||

e||----------------------------------------------------||
B||----------------------------------------------------||
G||----------------------------------------------------||
D||-----------------------------------9----------------||
A||--10-9-----10-9-----10-9-10-9--------12--10-10-9----||
E||-------10-------10------------10-----------------10-||


Me tiré a dormir, a ver si vienen pronto,
la puerta se abrió y se metió un maromo
salimos de allí en un momento zumbando,
le dije, ¡colega! ¿Por que habeis tardado tanto?

Cuando mira para atrás emtió un grito de espanto,
me sacó del coche a empujon y puñetazos,
Yo traté de explicar como había pasado todo,
como iba a saber que el coche era de un mono.

Solo fui a mear, y casi acabo en la comisaría.
Solo fui a mear, y me metí en un coche un policía.

    (AQI ES EL MISMO PUNTEO D ANTES)

Yo le repetía y el ni puto caso,
que si abre bien las piernas, arriba las manos.
Todo es un error, hágame usted caso,
y es que por la noche
todos los gatos son pardos.

Menos mal que aparecieron, todos los colegas,
con el coche rojo igual que el del madero.
Él se echó a reir y me trajo una cerveza,
tío no me jodas, que no es pa sacar un tema.

Solo fui a mear, y casi acabo en la comisaría.
solo fui a mear, y me metí en un coche policía.

(PARTE FINAL)

PUNTEO 1

e||----------------------------------------------------||
B||-------------3--0---------3--0--1--0----------------||
G||---0--2--0---------2--0---------------2--0----------||
D||----------------------------------------------------||
A||----------------------------------------------------||
E||----------------------------------------------------||

PUNTEO 2

e||-------------8--7--------||
B||---8888--88-------8------||
G||-------------------------||
D||-------------------------||
A||-------------------------||
E||-------------------------||


Solo fui a mear -PUNTEO 1

Solo fui a mear -PUNTEO 2

Solo fui a mear -PUNTEO 1

Solo fui a mear -PUNTEO 2

(Y PA TERMINAR)

e||----------------------------------------------------||
B||-8--7--5-----8--7--5------10--8--7------------------||
G||----------7-----------7-------------9--------7-9-7--||
D||----------------------------------------5/7---------||
A||----------------------------------------------------||
E||----------------------------------------------------||

e||----------------------------------------------------||
B||-------------3--0---------3--0--1--0----------------||
G||---0--2--0---------2--0---------------2--0----------|| ((BIS))
D||----------------------------------------------------||
A||----------------------------------------------------||
E||----------------------------------------------------||


Video Clip de Si lo sé me meo


ACORDES PARA GUITARRA

PIANO UKELELE
G
D
E
C


TOP 20: Las más tocadas de los Porretas


Acordes

Cerrar
G
D
E
C

18.15

x

74