Sólo por el que dirán
los Porretas
Acordes

Subida por tirro


Más Versiones
Ver. 2

Cambiar Cifrado
Americano Latino

Cambiar Tonalidad
-1 +1

Partir Pantalla Imprimir FAQ

+A
-A
Al lío...

e |------------------------------|
B |---------8--8-----------------|
G |9-9--7-9------9-9-7-7-9-7-----|
D |------------------------------|
A |------------------------------|
E |------------------------------|

Bueno, a ver si me expliko bien; lo de arriba se toka 4 veces kon
una guitarra, y kon la otra estos akordes haciéndolos sonar enteros
pero kon kintas:

E C G D

y luego

e |------------------------------|
B |---------8--8-----------------|
G |9-9--7-9------9-9-7-9~~~~~----|
D |------------------------------|
A |------------------------------|
E |------------------------------|

otras kuatro veces kon estos akordes en Palm Mute:

E C G B

Fale, ahora se kanta kon estos akordes pero más rápido y kontinuo (la letra es kojonuda!!!):

E
Ni son todos los ke están
C
ni están todos los ke son
G D
reirse de su sombra por salirse del montón
E
Ser algo diferente
C
es una preokupación
G B
del tío ke es aburrido y sin imaginación

Estribillo:

E
Y akel ke no está loko
C
Está loko por estar
G D
Dame pan y dime tonto dime tonto y dame pan
E
Sin guardar las apariencias
C
Sólo por el ké dirán
G B
Mi padre tiene un barko me kago hasta en la mar de Dios


Ya está, el resto de la kanción son esos akordes de base y luego algunos punteíllos no muy komplikados así ke no los pongo porke no kiero rayitas.

E
Si vas hablando solo
C
y no llevas la razón
G D
diskutes kontigo mismo y pierdes la diskusión
E
Las moskas tus amigas
C
para una konversación
G B
aunke rompas kristales tira piedras a tu tejao ¡KABRÓN!


ACORDES PARA GUITARRA

PIANO UKELELE
G
E
C
D
B


COMENTARIOS

Aún no hay comentarios,

¡escribe el primero!

Escribe una pregunta, duda o comentario sobre esta canción, te responderemos a la brevedad.

Las más tocadas de los Porretas

Toca una Canción al Azar de los Porretas
G
E
C
D
B