Otro Mundo
Lovorne
Acordes

Subida por lucio


Más Versiones
Ver. 2 Ver. 3

Cambiar Cifrado
Americano Latino

Cambiar Tonalidad
-1 +1

Partir Pantalla Imprimir FAQ

+A
-A
Bueno aca les dejo el tema!


e-----------------------------------------------------
b-----------------------------------------------------
g-----5--------------5--2--------5-------------2------ x2 (riff 1)
d-----5------4-4-4---5--2--------5-----4-4-4---2------
a-----3------4-4-4---3--0--------3-----4-4-4---0------
e------------2-2-2---------------------2-2-2----------

g---5----2-----------------------------5-5---------2------
d---5----2-2-2-2-2-2--5--7-------------5-5--4-4-4--2------
a---3----0-0-0-0-0-0--5--7-7-7-7-7-7---3-3--4-4-4--0------ (riff 2)
e---------------------3--5-5-5-5-5-5--------2-2-2---------

riff 2
Hay un mundo,
otro mundo,
el cual ya no puedo evitar.
Hay fisuras
del sistema,
cosas que no puedo esquivar.


Estribillo: Riff 1
Si todo sería tan fácil,
no habría preocupación.
Si todo sería tan fácil,
estaríamos juntos los dos.

Riff 2
Mil historias
y lugares,
cosas que no puedo olvidar.
Hay un viaje en mi mundo,
del cual ya no quiero bajar.


Estribillo:Riff 1
Si todo sería tan fácil,
no habría preocupación.
Si todo sería tan fácil,
estaríamos juntos los dos.

Aca viene el solo, la base es con el riff 1


Estribillo:Riff 1
Si todo sería tan fácil,
no habría preocupación. x2
Si todo sería tan fácil,
estaríamos juntos los dos.


Riff 2


Riff 2
Hay un mundo,
otro mundo,
el cual ya no puedo evitar.

Muchas gracias por pasar y dejen puntos!


ACORDES PARA GUITARRA

PIANO UKELELE


COMENTARIOS

Aún no hay comentarios,

¡escribe el primero!

Escribe una pregunta, duda o comentario sobre esta canción, te responderemos a la brevedad.

Las más tocadas de Lovorne

Toca una Canción al Azar de Lovorne