Que pasa por mi cabeza
Lovorne
Acordes

Subida por Elkiinfr


Más Versiones
Ver. 2 Ver. 3 Ver. 4 Ver. 5

Cambiar Cifrado
Americano Latino

Cambiar Tonalidad
-1 +1

Partir Pantalla Imprimir FAQ

+A
-A
INTRO
e------------------------------------
b------------------------------------
g------------------------------------
d------------------7-9-7-9---------
a------5/7-9-7-9---5-5-5-5----base blues-----
e----0h3/5-5-5-5-------------------

A D
Que pasa por mi cabeza, loco
A D
Que ando entre ginebras, loco
G C
Y mis chicos con zapatillas viejas
G C
Que me vengan a rescatar

Que pasa con esta blanca, loco (que es lo que pasa)
Que me hace la vida negra, loco (que es lo que pasa)
Que pasa con este frio, que viene de adentro mio
Que me vengan a rescatar

SOLO: A-D X2 G-D X2
(TODO EL TEMA SIGUE CON EL MISMO RITMO)
Que pasa con este humo, loco (que es lo que pasa)
Que en mi garganta hace un nudo, loco (que es lo que pasa)
Quiero abrir la puerta y mirando hacia el cielo
Quiero gritar que te amo, que te extraño y que te quiero

Que pasa con esta cuadra, loco
De repente se hace larga, loco
Que ya no puedo caminar
Que carajo esta pasando aca (que es lo que pasa)

Que pasa por mi cabeza, loco
Que es lo que pasa
Que pasa por mi cabeza, loco
Que es lo que pasa
Que pasa por tu cabeza, loco
Que es lo que pasa
Que pasa por mi cabeza, loco
Que es lo que pasa

FINAL
--------------------------------------------------------------------
--------------------------------------------------------------------
---7P5----7-5-----7P5---5-------------------------------------------
--------7----------- -7---7---5---7---5----5-----------------7------
-----------------------------------------7-----7----5--------7------
--------------------------------------------------------5----5------


ACORDES PARA GUITARRA

PIANO UKELELE
A
D
G
C


COMENTARIOS

Aún no hay comentarios,

¡escribe el primero!

Escribe una pregunta, duda o comentario sobre esta canción, te responderemos a la brevedad.

Las más tocadas de Lovorne

Toca una Canción al Azar de Lovorne
A
D
G
C