Corazón de heavy metal
Lujuria
Acordes

Subida por Walter


Más Versiones
Ver. 2 Ver. 3 Ver. 4 Ver. 5

Cambiar Cifrado
Americano Latino

Cambiar Tonalidad
-1 +1

Partir Pantalla Imprimir FAQ

+A
-A
Nota:

Cuando pongo --0-0-0..--- significa k es mas veces pero k no las he
contado,
lo oyes y ya está.

Esta peaso de canción empieza tal k asi: (distorsión al tope)

e|-----------|-------------------------------------------------------
B|-----------|-------------------------------------------------------
G|-7---------|--9---------------------7----------------5-4-5---7-5-7-
D|-7---------|--9---------------------7---7------------5-4-5---7-5-7-
A|-5---5-5-5-|--7---7-7-7-7-7-7-7..---5---7--7-7-7..---3-2-3---5-3-5-
E|-----------|------0-0-0-0-0-0-0..-------5--5-5-5..-----------------
pm... pm............. pm.....

e|-----------------------------------------------------------
B|-----------------------------------------------------------
G|--9----------------------7----------------5-4-5---7-5-7----
D|--9----------------------7---7------------5-4-5---7-5-7----
A|--7---7-7-7-7-7-7-7..----5---7--7-7-7..---3-2-3---5-3-5----
E|------0-0-0-0-0-0-0..--------5--5-5-5..--------------------
pm............. pm.....



En lo anterior entra esto, oyelo:

e|----------------------------5-7-5---------
B|----/8--/7--/5-------/8-7-8-------8-7-8---
G|------------------------------------------
D|------------------------------------------
A|------------------------------------------
E|------------------------------------------


aki empieza a cantar:

e|-----------------------------------------------
B|-----------------------------------------------
G|--9---------------9-----5---5-4-5--7-5-7-------
D|--9---------------9-----5---5-4-5--7-5-7-------
A|--7---------------7-----3---3-2-3--5-3-5-------
E|--0---0-0-0-0-...------------------------------
pm.........


e|--------------------------------------------
B|--------------------------------------------
G|--9---------------9-----5-------------------
D|--9---------------9-----5----2------4-5-----
A|--7---------------7-----3----2------4-5-----
E|--0---0-0-0-0-...------------0------2-3-----
pm.........


e|----------x----------------------------x-----------------------
B|----------x----------------------------x-----------------------
G|----7-----si------5-4-5----------7-----si----------------------
D|----7-7---len-----5-4-5--5-4-5---7-7---len------5-4-5-7-5-4--2-
A|----5-7---cio-----3-2-3--5-4-5---5-7---cio------3-2-3-5-3-2--2--
E|------5---x--------------3-2-3-----5---x---------------------0--


Ahora vuelve a empezar la parte de la letra.

Cuando termina hace esto (de fondo el acorde MI5 con palm muting):

e|----------------------------------------------------------------
B|----------4-------------------5--5(6)-4-------------------------
G|---4---5-----5--4-----4---5-------------------------------------
D|----------------------------------------------------------------
A|----------------------------------------------------------------
E|----------------------------------------------------------------


ESTRIBILLO:

e|-----------------------------------------------------------
B|-----------------------------------------------------------
G|---9----------------7--------------------------------------
D|---9----------------7--------7----------------2------------
A|---7---7-7-7-7------5--------7--7-7-7---------2------------
E|---0---0-0-0-0..-------------5--5-5-5..-------0------------
pm....... pm.....

SOLO:

e|-15p14p12-15p14p12-15p14p12-15p14p12-15p14p12-15p14p12-15p14p12-
B|----------------------------------------------------------------
G|----------------------------------------------------------------
D|----------------------------------------------------------------
A|----------------------------------------------------------------
E|----------------------------------------------------------------

e|-14p12p11-14p12p11-14p12p11-14p12p11-14p12p11-14p12p11-14p12p11-
B|----------------------------------------------------------------
G|----------------------------------------------------------------
D|----------------------------------------------------------------
A|----------------------------------------------------------------
E|----------------------------------------------------------------

e|-15p14p12-15p14p12-15p14p12-15p14p12-15p14p12-15p14p12-15p14p12-
B|----------------------------------------------------------------
G|----------------------------------------------------------------
D|----------------------------------------------------------------
A|----------------------------------------------------------------
E|----------------------------------------------------------------

e|-14p12p11-14p12p11-14p12p11-14p12p11-14p12p11-14p12p11-14p12p11-
B|----------------------------------------------------------------
G|----------------------------------------------------------------
D|----------------------------------------------------------------
A|----------------------------------------------------------------
E|----------------------------------------------------------------

(otra vez)

e|----------------------------------------------------------------/
B|----------------------------------------------------------------/
G|-16--17--14--16---16161616161616--1717171717 2020202020--20(22)-/
D|----------------------------------------------------------------/
A|----------------------------------------------------------------/
E|----------------------------------------------------------------/


Otra vez la letra.
otra vez estribillo.

Para terminar:

e|------------------------------------------------
B|------------------------------------------------
G|------------------7-5-4----5---7----------------
D|-----10--9--7-----7-5-4----5---7-----2----------
A|-----10--9--7-----5-3-2----3---5-----2----------
E|-----8---7--5------------------------0----------

Pos eso, a mi se me parece, :P

Si tienes algun comentario buscame en el irc-hispano,
mi nick es bluenote
o al correo electronico.



...


ACORDES PARA GUITARRA

PIANO UKELELE


COMENTARIOS

Aún no hay comentarios,

¡escribe el primero!

Escribe una pregunta, duda o comentario sobre esta canción, te responderemos a la brevedad.

Las más tocadas de Lujuria

Toca una Canción al Azar de Lujuria