Por en cima de nuestros enemigos
Lujuria
Acordes

Subida por jhoymar23


Más Versiones
Ver. 2

Cambiar Cifrado
Americano Latino

Cambiar Tonalidad
-1 +1

Partir Pantalla Imprimir FAQ

+A
-A
e|-----------------|-------------|---------------------|
B|-----------------|-------------|---------------------|
G|-------9--10-9-7-|-9-10-9------|---9--10-9-7--9-10-9-|
D|--7-10-----------|--------10-7-|-10------------------|
A|-----------------|-------------|---------------------|
E|-----------------|-------------|---------------------|

e|-----------------|-------------|
B|-----------------|-------------|
G|--10-9-7-------7-|-9-7---------|
D|----------9-10---|-----10--9-7-|
A|-----------------|-------------|
E|-----------------|-------------|

e|-----------------|-------------|
B|-----------------|-------------|
G|-----------------|-------------|
D|--7-9-10--9-7----|--7-9-7------|
A|--------------10-|-------------|
E|-----------------|-------------|

La ultima parte dos veces
y después todo se repite pero en octava

Nota para atame :
espero q esta ves no la rechaces atame
ya q la tablatura es el intro del disco
y además esta correcta si dudas
te reto a q la cheqs tu mismo
Por el viejo juglar:
sencillo el intro pero tienen talento los lujuria
y esperen nuevas tablaturas ya q yo
no soy carne de cañon o un sinple jilipolla
asta pronto


ACORDES PARA GUITARRA

PIANO UKELELE


COMENTARIOS

Aún no hay comentarios,

¡escribe el primero!

Escribe una pregunta, duda o comentario sobre esta canción, te responderemos a la brevedad.

Las más tocadas de Lujuria

Toca una Canción al Azar de Lujuria