Dejad que los niños se acerquen a mi
Lujuria
Acordes

Subida por TOMAS23


Más Versiones
Ver. 2

Cambiar Cifrado
Americano Latino

Cambiar Tonalidad
-1 +1

Partir Pantalla Imprimir FAQ

+A
-A
intro
Solo 1:
E---------------------------------------------------------I
B-----7-8---7--------------------7-8-7-8-10-8-10/13-12----I
G---9---------9-7--------------9--------------------------I
D-9---------------10-9-7-7h9-9----------------------------I
A---------------------------------------------------------I
E---------------------------------------------------------I
*(aki entra la guitarra 2)

E-12--10-7h8p7--------------------------------------------I
B----------------10-8-7-8--10-10/12-----------------------I
G---------------------------------------------------------I
D---------------------------------------------------------I
A---------------------------------------------------------I
E---------------------------------------------------------I


*Guitarra 2:
E---------------------------------------------------------I
B---------------------------------------------------------I
G---------------------------------------------------------I
D-9-----------------------7------------------3------------I
A-7-----------------------5------------------3------------I
E--------------------------------------------5------------I

E---------------------------------------------------------I
B---------------------------------------------------------I
G---------------------------------------------------------I
D-9------------------------7-----------------3------------I
A-7------------------------5-----------------3----3-2-----I
E--------------------------------------------5--------3-2-I

E---------------------------------------------------------I
B---------------------------------------------------------I
G---------------------------------------------------------I
D-7------------------------7-----------------3-----7--9---I
A-9------------------------5-----------------3-----7--9---I
E--------------------------------------------5-----5--7---I


Versos:
“dejad que los niños vengan a rezar.....
E---------------------------------------------------------I
B---------------------------------------------------------I
G---------------------------------------------------------I
D-8--9----------------------------------------------------I
A-6--7----------------------------------------------------I
E--------0--0--0--0--0--0-0-0--0--0--0--0--0--0-0-0--0-0—-I
Pm...............................................
E---------------------------------------------------------I
B---------------------------------------------------------I
G-5-------------------------------------------------------I
D-5-----------------8//-9---------------------------------I
A-3-----------------6//-7---------------------------------I
E--------------------------0--0--0--0--0--0--0--0--0--0---I
Pm............................

E---------------------------------------------------------I
B---------------------------------------------------------I
G---------------------------------------------------------I
D-8--9----------------------------------------------------I
A-6--7----------------------------------------------------I
E--------0--0--0--0--0--0-0-0--0--0--0--0--0--0-0-0--0-0—-I
Pm...............................................


E---------------------------------------------------------I
B---------------------------------------------------------I
G-5-------------------------------------------------------I
D-5-----------------8//-9---------------------------------I
A-3-----------------6//-7---------------------------------I
E--------------------------0--0--0--0--0--0--0--0--0--0---I
Pm............................
Este es el pre-coro:
“los elegidos
E---------------------------------------------------------I
B---------------------------------------------------------I
G---------------------------------------------------------I
D-9-----------------------7------------------5------------I
A-7-----------------------5------------------5------------I
E--------------------------------------------3------------I

“los ministros..
E---------------------------------------------------------I
B---------------------------------------------------------I
G---------------------------------------------------------I
D-9-----------------------7------------------5------------I
A-7-----------------------5------------------5------------I
E--------------------------------------------3------------I


“no son tan santos
E---------------------------------------------------------I
B---------------------------------------------------------I
G---------------------------------------------------------I
D-9-----------------------7------------------5------------I
A-7-----------------------5------------------5------------I
E--------------------------------------------3------------I


“pero viven señalando!!!!!!! Con su dedo acusador.
E---------------------------------------------------------I
B---------------------------------------------------------I
G---------------------------------------------------------I
D---------------------------------------------------------I
A---------------------------------------3---------5v------I
E-5--5--5--5--5--5--5--5--5--5--5---7-------3-------------I
Pm............................


Coro:
“dejad que los niños se acerquen a mi!!!!
E---------------------------------------------------------I
B---------------------------------------------------------I
G---------------------------------------------------------I
D---------------------------------------------------------I
A---------------------------------------------------------I
E-3-3-3-3-3-3-3-3-3-3-3-3-3-3-3-3-3-3-3-3-3-3-3-3-3---2v--I
Pm.................................................

E---------------------------------------------------------I
B---------------------------------------------------------I
G---------------------------------------------------------I
D-2-------------------3--3--3--3--3--3------5-----------7-I
A-2-------------------3--3--3--3--3--3------5-----------5-I
E-0-------------------1--1--1--1--1--1------3-3-3-3-3-3---I
Pm................ ..........
Como me asusta esa frase!!”



“dejad que los niños se acerquen a mi!!!!!
E---------------------------------------------------------I
B---------------------------------------------------------I
G---------------------------------------------------------I
D---------------------------------------------------------I
A---------------------------------------------------------I
E-3-3-3-3-3-3-3-3-3-3-3-3-3-3-3-3-3-3-3-3-3-3-3-3-3---2v--I
Pm.................................................

E---------------------------------------------------------I
B---------------------------------------------------------I
G---------------------------------------------------------I
D-2------------------3--3--3--3--3--3---------2-----------I
A-2------------------3--3--3--3--3--3---------2-----------I
E-0------------------1--1--1--1--1--1---------0-0-0-0-0-0-I
Mientras esconde su empalme.”







Lo siguiente se hace durante el solo de “lilith”(teclados)

E---------------------------------------------------------I
B---------------------------------------------------------I
G---------------------------------------------------------I
D---------------------------------------------------------I
A-----------------------2-2-2-2-2-2-2-2-2-2-2-2-2-2-2-2---I
E-0-0-0-0-0-0-0-0-0-0-0-----------------------------------I
Pm.....................................................

E---------------------------------------------------------I
B---------------------------------------------------------I
G---------------------------------------------------------I
D---------------------------------------------------------I
A---------------------------------4-4-4-4-4-4-4-4-4-4-4-4-I
E-2-2-2-2-2-2-2-2-2-2-2-2-2-2-2-2-------------------------I
..........................................................

E---------------------------------------------------------I
B---------------------------------------------------------I
G---------------------------------------------------------I
D---------------------------------------------------------I
A-4-4-4---------------------------------------------------I
E-------4-4-4-4-4-4-4-4-5-5-5-5-5-5-5-5-6-6-6-6-6-6-6-6---I
..........................................................

E---------------------------------------------------------I
B---------------------------------------------------------I
G---------------------------------------------------------I
D---------------------------------------------------------I
A---------------------------------------------------------I
E-7-7-7-7-7-7-7-7-4-4-4-4-4-4-4-4-5-5-5-5-5-5-5-5-6-6-6-6-I
...........................................................

E---------------------------------------------------------I
B---------------------------------------------------------I
G---------------------------------------------------------I
D---------------------------------------------------------I
A---------------------------------------------------------I
E-6-6-6-6-6-6---------------------------------------------I
.............









Solo:
E------------------------------------8p7p5----------------I
B--------------10-8-7-8--7-7--------------8p7p5-----------I
G-9----------9---------------9p7-9-------------8p7p5------I
D----7h9h10-----------------------------------------10p9p7I
A---------------------------------------------------------I
E---------------------------------------------------------I

E---------------------------------------------------------I
B--------------10-8-7-8--7-7------------------------------I
G-9----------9---------------9p7-9----9-7-----------------I
D----7h9h10--------------------------------10--9—10----9--I
A---------------------------------------------------------I
E---------------------------------------------------------I

E---------------------------------------------------------I
B---------------------------------------------------------I
G--------------8v-----------------------------------------I
D---7---9--10---------------------------------------------I
A---------------------------------------------------------I
E---------------------------------------------------------I

Durante el solo la otra guitarra hace esto:
E---------------------------------------------------------I
B---------------------------------------------------------I
G---------------------------------------------------------I
D-7-------5--------4-----------7--------------------------I
A-7-------3--------2-----------7--------------------------I
E-5----------------------------5-5-5-5-5-5-5-5-5-5-5-5-5--I
Pm......................

E---------------------------------------------------------I
B---------------------------------------------------------I
G---------------------------------------------------------I
D-7-------5--------4-----------7--------------------------I
A-7-------3--------2-----------7--------------------------I
E-5----------------------------5-5-5-5-5-5-5-5-5-5-5-5-5--I
Pm......................

E---------------------------------------------------------I
B---------------------------------------------------------I
G---------------------------------------------------------I
D---3-----------------------------4-----------------------I
A---3-----------------------------2-----------------------I
E---1-----------------------------------------------------I

después bienen los segundos versos....ke son iguales a
los primeros....y la cancion termina con el coro.
Larga vida a muro!!!!!!


es recomendable ke sigan la tablatura escuchando la cancion

pm: palm mute
v: vibrato
h: hammer on
p: pick


bueno ahí esta la canción completa para guitarra...
spero les sea util....
comentarios, criticas de todo tipo, sugerencias...
al correo
[email protected]



kiero dedicarle este tab a los seguidores de
este gran grupo español
y sobre todo a la mujer mas hermosa del mundo,
a la dueña de mi corazon....a lina “mi chaparrita”

TE AMO!!!!


ACORDES PARA GUITARRA

PIANO UKELELE


COMENTARIOS

Aún no hay comentarios,

¡escribe el primero!

Escribe una pregunta, duda o comentario sobre esta canción, te responderemos a la brevedad.

Las más tocadas de Lujuria

Toca una Canción al Azar de Lujuria