De un solo golpe
Luzbel
Acordes

Subida por Jaf12


Más Versiones
Ver. 2 Ver. 3

Cambiar Cifrado
Americano Latino

Cambiar Tonalidad
-1 +1

Partir Pantalla Imprimir FAQ

+A
-A
E]---------0-------------
B]-------0---0--------0--
G]-----5------5-----4----
D]---7----------7--5-----
A]-0-------------0-------
E]-----------------------

E]-<12>------------
B]-----<12>--------
G]---------<7>-----
D]------------<7>--
A]-----------------
E]-----------------


E]---------0-------------
B]-------0---0--------0--
G]-----5------5-----4----
D]---7----------7--5-----
A]-0-------------0-------
E]-----------------------

E]-----0---------0-----0-----
B]----0--0------------0--0---
G]---2----2----2-----2----2--
D]--3------3--3-----3------3-
A]-0--------0------0---------
E]---------------------------

E]---0---
B]---0---
G]---1---
D]---2---
A]-------
E]-------
Esto 2 veces
E]----------:---------:-----
B]--5-5>3-3-:-3>6-6-6-:-5-5-
G]--5-5>4-4-:-4>7-7-7-:-5-5-
D]----------:---------:-----
A]-0--------:---------:-0-0-
E]----------:---------:-----

E]----------------------
B]--5-5-3-3-1-1---------
G]--5-5-4-4-2-2---------
D]----------------------
A]-0--------0-0---------
E]----------------------
ESTE ES EL RIFF PRINCIPAL
Y SE TOCA EN LOS VERSOS
E]----------------0------
B]---------------0--0-0--
G]--------------5----5---
D]----7-5-5h7-7----------
A]-5>7-------0-----------
E]-----------------------

E]---------------0-------
B]--------------0-0------
G]-------------2---2-----
D]----7-5-5>3-3-----3----
A]-5>7-------------------
E]-----------------------

E]--------------------
B]---------------0----
G]-------------5------
D]----7-5-5H7-7-------
A]-5>7-------0--------
E]--------------------

E]-<12>------------
B]-----<12>--------
G]---------<7>-----
D]------------<7>--
A]-----------------
E]-----------------



Hay canciones que se escriben
Con las lágrimas
E]----------------0------
B]---------------0--0-0--
G]--------------5----5---
D]----7-5-5h7-7----------
A]-5>7-------0-----------
E]-----------------------




Y se cantan con la sangre
En la garganta
E]----------------0------
B]---------------0--0-0--
G]--------------5----5---
D]----7-5-5h7-7----------
A]-5>7-------0-----------
E]-----------------------

Es porque el corazón explota
E]---------------0-------
B]--------------0-0------
G]-------------2---2-----
D]----7-5-5>3-3-----3----
A]-5>7-------------------
E]-----------------------

Al golpe de la distancia
E]----------------0----
B]---------------0-0-0--
G]-------------5----5--
D]----7-5-5H7-7-------
A]-5>7-------0--------
E]--------------------

Se repiten las mismas notas

Hay fantasmas que maldicen el presente
Ahogando de un solo golpe
Lo que te queda de existencia
E]-<12>------------
B]-----<12>--------
G]---------<7>-----
D]------------<7>--
A]-----------------
E]-----------------

Y después arpegios en estos acordes:

E]-0-:-0-:-0-:-0-
B]-0-:-0-:-0-:-0-
G]-5-:-5-:-2-:-1-
D]-7-:-3-:-3-.-2-
A]-0-:-0-:-0-:-0-
E]---:---:---:---

Ya me dio güeva escribir lo demás pero
hay va un poco del solo:

E]-------------12-:------------15-12-
B]------12-13-----:-----12-13--------
G]---14------14---:---14-----14------
D]-14-------------:-14---------------
A]----------------:- ----------------
E]----------------:------------------

E]-------------10-:------------13-12-
B]------10-12-----:-----10-12--------
G]---12------12---:---12-----12------
D]-12-------------:-12---------------
A]----------------:------------------
E]----------------:------------------

E]------------8-:-------------12-10--
B]-----8-10-----:-----8-10-----------
G]---10-----10--:---10-----10--------
D]-10-----------:-10-----------------
A]--------------:--------------------
E]--------------:--------------------

E]-10-10-8-7--4-7-8-7--------------
B]-----------5--------10-9-10>12-10
G]---------------------------------
D]---------------------------------
A]---------------------------------
E]---------------------------------

E]-17-15-13-12-13>15-:-13-13p12-10-10------
B]-------------------:----------------13-12
G]-------------------:---------------------
D]-------------------:---------------------
A]-------------------:---------------------
E]-------------------:---------------------

E]-----15-13-12-10-13-12---
B]-12----------------------
G]-------------------------
D]-------------------------
A]-------------------------
E]-------------------------


ACORDES PARA GUITARRA

PIANO UKELELE
B
E
G
A


COMENTARIOS

Aún no hay comentarios,

¡escribe el primero!

Escribe una pregunta, duda o comentario sobre esta canción, te responderemos a la brevedad.

Las más tocadas de Luzbel

Toca una Canción al Azar de Luzbel
B
E
G
A