Rompe la ley
Luzbel
Acordes

Subida por faradune


Más Versiones
Ver. 2

Cambiar Cifrado
Americano Latino

Cambiar Tonalidad
-1 +1

Partir Pantalla Imprimir FAQ

+A
-A
Hola, esta transcripcion se la dedico a EcO,
mi banda, porke la version en ingles
fue nuestro primer cover, disfrutenla.

Intro:
E---------------------------|---------------------------|
B---------------------------|---------------------------|
G---------------------------|---------------------------|
D---------------------------|---------------------------|
A--0--2--3--0-2--3--0-2--3--|--------0-------0----3--2--|
E---------------------------|--1--3-----1-3-----3-------|

Verso:
Me embriago con cerveza y wiskey y salgo a reventar
E-----------------------|----------------------------|
B-----------------------|----------------------------|
G--2--------------------|--------5-----------2-------|
D--2--------------------|--------5-----5-----2-------|
A--0--------------------|--------3-----5-----0-------|
E-----------------------|--------------3-------------|

La policia me persigue pero no me atrapara
E-----------------------|----------------------------|
B-----------------------|----------------------------|
G--2--------------------|--------5-----------2-------|
D--2--------------------|--------5-----5-----2-------|
A--0--------------------|--------3-----5-----0-------|
E-----------------------|--------------3-------------|

Si estoy vivo o si estoy muerto a nadie le importa ya
E-----------------------|----------------------|
B-----------------------|----------------------|
G--10-------------------|---------5------------|
D--10-------------------|---------5------------|
A---8-------------------|---------3------------|
E-----------------------|----------------------|

Un poco de accion necesito, ya mi vida voy a cambiar
E-----------------------|----------------------|
B-----------------------|----------------------|
G--10-------------------|-----9----------------|
D--10-------------------|-----9----------------|
A--8--------------------|-----7----------------|
E-----------------------|----------------------|

Coro:
Rompe la ley Escupe la ley
E-------------------|-------------------------|
B-------------------|---------------------10--|
G-------------------|----------------------9--|
D-------------------|-------------------------|
A--0-0-0-0-0-0-0-0--|--0-0-0-0-0-0-0-0--------|
E-------------------|-------------------------|

Rompe la ley Escupe la ley
E-------------------|-----------------------|
B-------------------|----------------10-10~-|
G-------------------|-----------------9--9~-|
D-------------------|-----------------------|
A----0-0-0-0-0-0-0--|--0-0-0-0-0-0-0--------|
E-------------------|-----------------------|

Rompe la ley Escupe la ley
E-------------------|-------------------------|
B-------------------|---------------------10--|
G-------------------|----------------------9--|
D-------------------|-------------------------|
A--0-0-0-0-0-0-0-0--|--0-0-0-0-0-0-0-0--------|
E-------------------|-------------------------|


Rompe la ley Escupe la ley
E-------------------|-------------------------|
B-------------------|---------------------10--|
G-------------------|----------------------9--|
D-------------------|-------------------------|
A--0-0-0-0-0-0-0-0--|--0-0-0-0-0-0-0-0--------|
E-------------------|-------------------------|

Verso 2:
El futuro no existe pero es tiempo de empezar
E-----------------------|----------------------------|
B-----------------------|----------------------------|
G--2--------------------|--------5-----------2-------|
D--2--------------------|--------5-----5-----2-------|
A--0--------------------|--------3-----5-----0-------|
E-----------------------|--------------3-------------|

todas las promesas rotas hoy voy a comprar
E-----------------------|----------------------------|
B-----------------------|----------------------------|
G--2--------------------|--------5-----------2-------|
D--2--------------------|--------5-----5-----2-------|
A--0--------------------|--------3-----5-----0-------|
E-----------------------|--------------3-------------|

tu no sabes como es esto, ohh! que frustracion
E-----------------------|----------------------|
B-----------------------|----------------------|
G--10-------------------|---------5------------|
D--10-------------------|---------5------------|
A---8-------------------|---------3------------|
E-----------------------|----------------------|

Un poco de accion necesito, ya mi vida voy a cambiar
E-----------------------|----------------------|
B-----------------------|----------------------|
G--10-------------------|-----9----------------|
D--10-------------------|-----9----------------|
A--8--------------------|-----7----------------|
E-----------------------|----------------------|

Coro:
Rompe la ley Escupe la ley
E-------------------|-------------------------|
B-------------------|---------------------10--|
G-------------------|----------------------9--|
D-------------------|-------------------------|
A--0-0-0-0-0-0-0-0--|--0-0-0-0-0-0-0-0--------|
E-------------------|-------------------------|

Rompe la ley Escupe la ley
E-------------------|-----------------------|
B-------------------|----------------10-10~-|
G-------------------|-----------------9--9~-|
D-------------------|-----------------------|
A----0-0-0-0-0-0-0--|--0-0-0-0-0-0-0--------|
E-------------------|-----------------------|

Rompe la ley Escupe la ley
E-------------------|-------------------------|
B-------------------|---------------------10--|
G-------------------|----------------------9--|
D-------------------|-------------------------|
A--0-0-0-0-0-0-0-0--|--0-0-0-0-0-0-0-0--------|
E-------------------|-------------------------|


Rompe la ley Escupe la ley
E-------------------|-------------------------|
B-------------------|---------------------10--|
G-------------------|----------------------9--|
D-------------------|-------------------------|
A--0-0-0-0-0-0-0-0--|--0-0-0-0-0-0-0-0--------|
E-------------------|-------------------------|


Riff (1:12):
E-------------------------|
B-------------------------|
G-------------------------|
D--4---------4---2--2--2--|x4
A--2---------2---0--0--0--|
E-------------------------|

Riff 3:
hoy me voy a reventaaaa....
E----------------|---------------|
B----------------|---------------|
G---7------------|--10-----5-----|
D---7------------|--10-----5-----|
A---5------------|--8------3-----|
E----------------|---------------|
x2
.......aaaar
E----------------|----------------|
B----------------|----------------|
G---7------------|--10-----12-----|
D---7------------|--10-----12-----|
A---5------------|--8------10-----|
E----------------|----------------|

Luego sigue el intro hasta que acaba la cancion


ACORDES PARA GUITARRA

PIANO UKELELE


COMENTARIOS

Aún no hay comentarios,

¡escribe el primero!

Escribe una pregunta, duda o comentario sobre esta canción, te responderemos a la brevedad.

Las más tocadas de Luzbel

Toca una Canción al Azar de Luzbel