Nazareno
Luzbel
Acordes

Subida por Lidi


Más Versiones
Ver. 2

Cambiar Cifrado
Americano Latino

Cambiar Tonalidad
-1 +1

Partir Pantalla Imprimir FAQ

+A
-A
Es solo la parte del intro, la demas parte no la pude sacar,
la afinacion es en E, Es de la version del disco de regalo
Vlvztrvm, espero les guste...

E|----------------------------------------------------------
B|----------------------------------------------------------
G|----------------------------------------------------------
D|7-0-7-0-7-0-7---0-8-0-8-0-8-0-8--0-5-0-5-0-5-0---8-7-5-7*-
A|----------------------------------------------------------
E|----------------------------------------------------------

E|-----------------------------------------------------------
B|-----------------------------------------------------------
G|-----------------3-2-0-2-----------------------------------
D|3-0-3-0-3-0-3-------------2-0-2-0-2-0-2---5----3---2----0--
A|--------------------------------------------0----0----0---0
E|-----------------------------------------------------------

E|----------------------------------------------------------
B|----------------------------------------------------------
G|----------------------------------------------------------
D|7-0-7-0-7-0-7---0-8-0-8-0-8-0-8--0-5-0-5-0-5-0---8-7-5-7*-
A|----------------------------------------------------------
E|----------------------------------------------------------

E|-----------------------------------------------------------
B|-----------------------------------------------------------
G|-----------------3-2-0-2-----------------------------------
D|3-0-3-0-3-0-3-------------2-0-2-0-2-0-2---5----3---2----0--
A|--------------------------------------------0----0----0---0
E|-----------------------------------------------------------

E|-----------------------------------------------------------
B|-----------------------------------------------------------
G|---------------0-------------0--4--6---------0--4--6---3---
D|---------------2-------------2--4--6---------2--4--6---3---
A|---------------2-------------2--2--4---------2--2--4---1---
E|-0-0-0-0-0-0---0---0-0-0-0-0-0-------0-0-0-0---------------

E|----------------------------------------------------------
B|----------------------------------------------------------
G|----------------------------------------------------------
D|----------------------------------------------------------
A|-----2-2--2-2--2-2--2-2--2-2------------------------------
E|-----0-0--0-0--0-0--0-0--0-0------------------------------

Cualquier duda o correccion no duden en mandarla
Saludos

////////////////// ¿Te Animas? Sube una canción a este sitio. //////////////////

ACORDES PARA GUITARRA

PIANO UKELELE


COMENTARIOS

Aún no hay comentarios,

¡escribe el primero!

Escribe una pregunta, duda o comentario sobre esta canción, te responderemos a la brevedad.

Las más tocadas de Luzbel

Toca una Canción al Azar de Luzbel