Hijos del metal
Luzbel
Acordes

Subida por Orlando
Álbum: Pasaporte al infierno ( 1986)


Más Versiones
Ver. 2 Ver. 3

Cambiar Cifrado
Americano Latino

Cambiar Tonalidad
-1 +1

Partir Pantalla Imprimir FAQ

+A
-A


Ver solo la LETRA
Este es el riff de la intro:

Gtr I
PM------------| PM------------------|
|-----------------------------|-----------------------|
|-----------------------------|-----------------------|
|-----------------------------|-----------------1-----|
|-----------------0h2-0h2-0h2-|-------------------2---|
|-----------------------------|---------------------4-|
|-0-0-0-0-0-0-0-0-------------|-0-0-0-0-0-0-0-0-------|


PM------------|
|-----------------------------|
|-----------------------------|
|-----------------------------|
|-----------------0h2-0h2-0h2-|
|-----------------------------|
|-0-0-0-0-0-0-0-0-------------|


PM------------| ~
|--------------------------|
|--------------------------|
|-------------------4------|
|-----------------6---6----|
|--------------------------|
|-0-0-0-0-0-0-0-0----------|


PM------------| PM------------------|
|-----------------------------|--------------------------|
|-----------------------------|--------------------------|
|-----------------------------|-----------------1--------|
|-----------------0h2-0h2-0h2-|-------------------2------|
|-----------------------------|---------------------4----|
|-0-0-0-0-0-0-0-0-------------|-0-0-0-0-0-0-0-0----------|


PM------------|
|-----------------------------|
|-----------------------------|
|-----------------------------|
|-----------------0h2-0h2-0h2-|
|-----------------------------|
|-0-0-0-0-0-0-0-0-------------|


PM------------| ~
|--------------------------|
|--------------------------|
|-------------------5------|
|-----------------6---6----|
|--------------------------|
|-0-0-0-0-0-0-0-0----------|


aqui aumenta la velocidad y termina con un armónico
~~~
|---------------------------------|---------------------|
|---------------------------------|---------------------|
|-----4-------4-------4-------4---|-----4--------[4]----|
|-4h6---6-4h6---6-4h6---6-4-6---6-|-4h6----6-4h6--------|
|---------------------------------|---------------------|
|---------------------------------|---------------------|


en esta parte entra la voz:

Con su magia nos convierte

PM------|
|-----------------------------------|
|-----------------------------------|
|-----------------------------------|
|-8s9-------------------------------|
|-6s7-7-7-7-7-7-10p7-7-9p7-[5]s7----|
|-----0-0-0-0-0---------------------|



en energía sideral

PM------------------| PM--|
|--------------------------------------|
|--------------------------------------|
|--------------------------------------|
|-----------------6-6-6--5--6-6-6--5---|
|-----------------4-4-4--3--4-4-4--3---|
|-0-0-0-0-0-0-0-0----------------------|



Este es el segundo riff de la rola
Se toca rápido y con armónicos

Su maldición profetiza
PM--------------------------------------|
|----------------------------------------------|
|----------------------------------------------|
|----------------------------------------------|
|-------------------------[1]s2----------------|
|----------------------------------------------|
|-0-0-0-0-0-0-3p0-0-2p0-0-------0-0-0-0-0-0----|



corazones de metal
PM--| PM--|
|--------------------|
|--------------------|
|--------------------|
|--------5--------5--|
|-4-4-4--3-4-4-4--3--|
|--------------------|



este es el riff 3 se repite en el coro

somos los hijos del metal

PM----------------------------| PM----|
|---------------------------------|------------------|
|---------------------------------|------------------|
|---------------------------------|------------------|
|---------------------------------|-9-6-4------------|
|---------------------------------|-7-4-2------------|
|-0-0-0-0-0-0-0-0-0-0-0-0-0-0-0-0-|-------0-0-0-0----|

somos los hijos del metal

|---------------------------------|---------------|
|---------------------------------|---------------|
|---------------------------------|---------------|
|---------------------------------|-9-6--4--------|
|---------------------------------|-7-4--2--/9----|
|-0-0-0-0-0-0-0-0-0-0-0-0-0-0-0-0-|---------------|

y luego va mas o menos así
~~~~~
|-------------------------------------|
|-------------------------------------|
|----7-----------------7-------[7]b9--|
|-10---10-9-7-9-7-9-10---10-9---------|
|-------------------------------------|
|-------------------------------------|


|-------------|
|-------------|
|-------------|
|-5---5--5----|
|-3---3--3----|
|-------------|


PM------------------------------------|
||-------------------------------|------------|
||-------------------------------|------------|
||-------------------------------|------------|
||-------------------------[1]s2-|------------|
||-------------------------------|------------|
||-0-0-0-0-0-0-3p0-0-2p0-0-------|-0-0-0-0----|




aqui empieza el solo:
PM--| PM--| ~~ ~~~
|-------------------|---19-15-----|---------|
|-------------------|---------15--|--/19----|
|-------------------|-------------|---------|
|-------5--------5--|-------------|---------|
|-4-4-4-3--4-4-4-3--|-------------|---------|
|-------------------|-------------|---------|

y la guitarra 1 se sigue con el solo
la guitarra 2 toca esto:
(es parecido al riff 2 pero en otro tono,F#)

PM----------------------------------|
|---------------------------|------------|
|---------------------------|------------|
|---------------------------|------------|
|---------------------------|------------|
|-------------------4-------|------------|
|-2-2-2-2-2-2-5-4-0-2---2-2-|-2-2-2-2----|


PM------------------|
|---------------------------|------------|
|---------------------------|------------|
|---------------------------|------------|
|---------------------------|------------|
|-----2-2-2-2-4-------------|-------4----|
|-2-2-0-0-0-0-2-2-2-2-2-2-2-|-5-4-0-2----|



PM--------|
|----------------------------|
|----------------------------|
|----------------------------|
|----------------------------|
|-----------------2-2-2-2----|
|-2-2-2-2-2-2-2-2-0-0-0-0----|

aqui cambia otra vez a G:
PM------------------|
|---------------------------------|
|---------------------------------|
|---------------------------------|
|---------------------------------|
|-5------------------3-3-3-3-5----|
|-3--3-3-3-3-3-3-3-3-1-1-1-1-3----|


cuando termina el solo siguen estos acordes:
B5 F5 D5 G5 B5 F5 D5 F#5
|--------------------------------------------|
|--------------------------------------------|
|--------------------------------------------|
|-4----10----7---------4----10----7----4-----|
|-2-----8----5----5----2-----8----5----4-----|
|-----------------3--------------------2-----|


~~~
|---------------------------------|--------------------|
|---------------------------------|--------------------|
|-----4-------4-------4-------4---|-----4-------[4]----|
|-4h6---6-4h6---6-4h6---6-4-6---6-|-4h6---6-4h6--------|
|---------------------------------|--------------------|
|---------------------------------|--------------------|


Se repite otra vez el riff2

como una escapatoria las angustias se liberan...etc

y otra vez el coro y el riff 3:

somos los hijos del metal
PM----------------------------| PM----|
|---------------------------------|---------------------|
|---------------------------------|---------------------|
|---------------------------------|---------------------|
|---------------------------------|-9--6--4-------------|
|---------------------------------|-7--4--2-------------|
|-0-0-0-0-0-0-0-0-0-0-0-0-0-0-0-0-|----------0-0-0-0----|



3x
|---------------------------------|---------|
|---------------------------------|---------|
|---------------------------------|---------|
|---------------------------------|-9--6--4-|
|---------------------------------|-7--4--2-|
|-0-0-0-0-0-0-0-0-0-0-0-0-0-0-0-0-|---------|


y aquí es cuando dice:
hijos del metal
|------------------|
|------------------|
|------------------|
|-9--6--4----------|
|-7--4--2-2--------|
|---------0--------|


eso es lo que tengo
dudas? Por si no entiende
alguien los símbolos escriban
Si alguien se anima a sacar el solo
Que me lo pase


ACORDES PARA GUITARRA

PIANO UKELELE
B5
F5
D5
G5
F#5


COMENTARIOS

Aún no hay comentarios,

¡escribe el primero!

Escribe una pregunta, duda o comentario sobre esta canción, te responderemos a la brevedad.

Las más tocadas de Luzbel

Toca una Canción al Azar de Luzbel
B5
F5
D5
G5
F#5