El Amor no tiene edad
Lynda
Acordes

Subida por juantonio


Más Versiones
Ver. 2 Ver. 3

Cambiar Cifrado
Americano Latino

Cambiar Tonalidad
-1 +1

Partir Pantalla Imprimir FAQ

+A
-A
Intro: Eb  Dm  Gm  Bb    Bb-C-C

F Gm/D
Paso la noche, desde mi ventana,
C F *
pidiendo al tiempo, que ya sea mañana,
Dm ** Gm
para encontrarlo, en la puerta de entrada,
Gm Am Bb C
y antes de la campana, abrazarlo otravez.

F Gm/D
Amor primero, amor a escondidas,
C F *
por que mi padre, se que no entenderia,
Dm ** Gm
bajo mi almohada, tengo todas sus cartas,
Gm Am Bb C
y una fotografia, donde esta junto a mi.

Coros:
F C/E Bb
Pienso en el a todas horas, todos los dias,
Bb-Am Gm F C
y escucho canciones, que me hacen llorar,
Am Gm
mis amigas juran que estoy triste,
Am Dm C Gm Am Bb C F C
y mi madre solo dice, el amor no tiene edad.

El primer beso, no se me olvida,
sera un recuerdo para toda la vida,
muero de pena, y muero de alegria,
vivo tan confundida, pero asi soy feliz.

Coros

Solo:
Dm C Gm
1/2
-10-12-12b-----------------------------------10-12-15-13-15br-13------
------------10-----------10-----13----13br-----------------------15---
---------------12-10--12----12-----12---------------------------------
----------------------------------------------------------------------
----------------------------------------------------------------------
----------------------------------------------------------------------

Bb C
1/2
----------------10--------------------------------------------------------------------
-13br-10-----------13-10--------------------------------------------------12b---------
---------12-12b----------12br-10----10----12-12h14p12--10----10-10h12-10--------------
---------------------------------12-----------------------12--------------------------
--------------------------------------------------------------------------------------
--------------------------------------------------------------------------------------


Coros:
F C/E Bb
Pienso en el a todas horas, todos los dias,
Bb-Am Gm F C
y escucho canciones, que me hacen llorar,
Am Gm
mis amigas juran que estoy triste,
Am Dm C Gm Am Bb F Eb Dm F
y mi madre solo dice, el amor no tiene edad.



*=(Bajo) F-E
**=(Bajo) C


ACORDES PARA GUITARRA

PIANO UKELELE
Eb
Dm
Gm
Bb
C
F
Gm/D
Am
C/E
E


COMENTARIOS

Aún no hay comentarios,

¡escribe el primero!

Escribe una pregunta, duda o comentario sobre esta canción, te responderemos a la brevedad.

Las más tocadas de Lynda

Toca una Canción al Azar de Lynda
Eb
Dm
Gm
Bb
C
F
Gm/D
Am
C/E
E