Para ti
Lynda
Acordes

Subida por LEIDER100


Más Versiones
Ver. 2 Ver. 3

Cambiar Cifrado
Americano Latino

Cambiar Tonalidad
-1 +1

Partir Pantalla Imprimir FAQ

+A
-A
INTRO

E.-8-7—----8-7------8-7-----8-7---------------------
B.-----8-8-----8-10-----8-8-----8-8^7-8^7-8-8^10-8--
G.--------------------------------------------------
D.--------------------------------------------------
A.--------------------------------------------------
E.--------------------------------------------------

E.-8-7------8-7-----8-7-----------------------------
B.-----8-10-----8-8-----8-8^7-8^7-8-8-^10-8---------
G.--------------------------------------------------
D.--------------------------------------------------
A.--------------------------------------------------
E.--------------------------------------------------


G
AUN RECUERDO
D
TU AUTO VIEJO
C
AQUEL REFUGIO
D
DONDE ATABAMOS SUEÑOS
G D C
VIVIENDO DE FRENTE
D
CONTRA DE TODOS Y CONTRACORRIENTE

G
PARA MIS PADRES
D
ERAS UN VAGO
C
LA MALA INFLUENCIA
D
UN PELO EN EL PLATO
G D C
UN TEMA PROHIBIDO
D
COMO SI EL VERTE FUERA UN GRAN DELITO


CORO

G D
SI ALGUNA VEZ PIENSAS EN MI
C D
ESTA CANCION LA HICE PARA TI
G D
EN DONDE ESTES YO SIGO AQUI
C D G D C D
Y ESTA CANCION LA HICE PARA TI


G D
HASTA QUE UN DIA ENTRE SILENCIOS
C
ME CONFESASTE
D
QUE TE IBAS MUY LEJOS
G D C
NO HUBO PROMESAS
D
NO HUBO ADIOS DE TELENOVELA
G D
EL TIEMPO PASA, PASA LA GENTE
C
MAS LOS RECUERDOS
D
SON PARA SIEMPRE
G D C
NO IMPORTA QUE DUELA
D
CIERRO LOS OJOS Y TE SIENTO CERCA

CORO

SI ALGUNA VEZ...


SOLO

E.--------------------------------------------------
B.--------------------------------------------------
G.--------------------------------------------------
D.-3-3-3-2-0---------------3-3-3-2-5-5-5-5-7-7-7-5-5
A.-----------3--------------------------------------
E.-------------3-2-0-2--5---------------------------

G D
SI ALGUNA VEZ AL PASO DE LOS AÑOS
C
CON LA PUERTA
D
DE TUS PENSAMIENTOS
G D
JAMAS OLVIDES QUE VOLAMOS LEJOS
C D
Y QUE A TU LADO NUNCA TUVE MIEDO

CORO

SI ALGUNA VEZ ...


ACORDES PARA GUITARRA

PIANO UKELELE
G
D
C


COMENTARIOS

Aún no hay comentarios,

¡escribe el primero!

Escribe una pregunta, duda o comentario sobre esta canción, te responderemos a la brevedad.

Las más tocadas de Lynda

Toca una Canción al Azar de Lynda
G
D
C