Animals
Muse
Acordes

Subida por Moddlp
Álbum: The 2nd Law ( 2012)


Más Versiones
Ver. 2 Ver. 3 Ver. 4
+A
-A
Intro:
D#m x4
D#m C# G#m F# x2

D#m C# G#m
Animal, you're an animal,
F# D#m C# G#m F#
Don't take anything less.

D#m C# G#m
Out of control, you're out of control,
F# D#m C# G#m F#
Strike those in distress.

Refrão
G#m G F# F
Analyze, advertise,
C# B A G#
Expand.
F# F D#m C#
Bend more rules,
B G#m A# A#
Buy yourself an island.

(D#m C# G#m F# x2)
-------------------------------------------------------------
-------------------------------------------------------------
------------11-15-13-11-13-11-10h11p10---10------------------
----------13---------------------------13--13-11-13-11-9-----
--------13------------------------------------------------13-
---11-14-----------------------------------------------------

-------------------------------------------------------------
------------12-16-14-12-14-12-11h12p11---11------------------
----------13---------------------------13--13-11-13-11-10---- x2
--------13------------------------------------------------13-
---11-14-----------------------------------------------------
-------------------------------------------------------------

D#m C# G#m
Animals, we're animals,
F# D#m C# G#m F#
Buy, when blood is on the street.
D#m C# G#m
Out of control, we're out of control,
F# D#m C# G#m F#
Crush those who beg at your feet.


Refrão
G#m G F# F
Analyze, franchise,
C# B A G#
Spread out.
F# F D#m C#
Kill the competition,
B G#m A# A#
And buy yourself an ocean.

solo
--------------------------
--------------------------
-------------------------- x4
--------------------------
--------------------------
---0-0-0-11-0-0-9-0-7-0---

--------------------------------------------------------------
--------------------------------------------------------------
-------11----11-13-11----11----------11----11b13b11----11-----
-13-15----15----------15----15-13-15----15----------15--------
--------------------------------------------------------------
--------------------------------------------------------------

-------------------------------------------------------------------
-------12----12-14-12----12----------11----11-12-11----11----------
-13-15----15----------15----15-11-13----13----------13----13-11----
----------------------------------------------------------------15-
-------------------------------------------------------------------
-------------------------------------------------------------------

--------------------------------------------------------------
--------------------------------------------------------------
-------11----11-13-11----11----------11----11b13b11----11-----
-13-15----15----------15----15-13-15----15----------15--------
--------------------------------------------------------------
--------------------------------------------------------------

-------------------------------------------------------------------
-------12----12-14-12----12----------11----11-12-11----12-11-------
-13-15----15----------15----15-11-13----13----------13-------13-11-
-------------------------------------------------------------------
-------------------------------------------------------------------
-------------------------------------------------------------------

G#m G F# F
Amortize, downsize,
C# B A G#
Lay off.
F# F D#m C#
Kill yourself,
B G#m A# A#
Come on and do us all a favour.

ACORDES PARA GUITARRA

PIANO UKELELE
D#m
C#
G#m
F#
G
F
B
A
G#
A#


COMENTARIOS

Aún no hay comentarios,

¡escribe el primero!

Escribe una pregunta, duda o comentario sobre esta canción, te responderemos a la brevedad.

Las más tocadas de Muse

Toca una Canción al Azar de Muse
D#m
C#
G#m
F#
G
F
B
A
G#
A#