Psycho
Muse
Acordes

Subida por KENTHSDQ
Álbum: Drones ( 2015)


Más Versiones
Ver. 2
+A
-A
Riff Principal:

E|-------------------------------------------------|
B|-------------------------------------------------|
G|-------------------------------------------------|
D|-------------------------------------------------|
A|-------------------------------------------------|
D|--0--3-0-5-0-3-0--0-3-0--5h6-5h6-----------------|

Outro:

E|-------------------------------------------------------------------|
B|---------------------------------------------------13--13----------|
G|----------------------------------------------------------10-------|
D|-------------------------------------------------------------------|
A|-------------------------------------------------------------------|
D|--0--3-0-5-0-3-0--0-3-0--5h6-5h6--0--3-0-5-0-3-0-------------------|

Pré refrão:

E|-------------------------------------------------------------------|
B|-------------------------------------------------------------------|
G|-------------------------------------------------------------------|
D|-------------------------------------------------------------------|
A|-0h4-0h5-0h6------------------------------------------------------|
D|-0h4-0h5-0h6-------------------------------------------------------|

Este riff tocado no início é o mesmo do refrão "your ass belongs to me now":

E|-------------------------------------------------------------------|
B|-------------------------------------------------------------------|
G|-------------------------------------------------------------------|
D|-------------------------------------------------------------------|
A|-----------------------------------------------3-----4-------------|
D|-7-8p7-11-7-8p7-7-8p7-11p7-8-7-5-7p5-8-7-5-3-3---2-2---------------|

Solo:

E|-------------------------------------------------------------------|
B|-------------------------------------------------------------------|
G|-12b14--12b14r12-10h12r10------------------------------------------|
D|-----------------------------------10-10-10-10/0-------------------|
A|--------------------------10h11h12---------------------------------|
D|-------------------------------------------------------------------|

Andamento

E|----------------------------------------------------------------------------|
B|----------------------------------------------------------------------------|
G|----------------------------------------------------------------------------|
D|----------------------------------------------------------------------------|
A|----------------------------------------------------------------------------|
D|-0-0-0-0-0-0-5h6h7-0-0-0-0-0-0-10h11h12-0-0-0-0-0-0-5p0-3-0-0-0-0-0-0-5h6h7-|

E|----------------------------------------------------------------------------|
B|----------------------------------------------------------------------------|
G|----------------------------------------------------------------------------|
D|----------------------------------------------------------------------------|
A|-------------0h1h2-3-3-3-3-3-3-0h3h4-5-------------3h4h5--------------------|
D|-3-3-3-3-3-3---------------------------5-5-5-5-5-5-------5-5-5-5-5-5-5h6h7--|

E|----------------------------------------------------------------------------|
B|----------------------------------------------------------------------------|
G|----------------------------------------------------------------------------|
D|----------------------------------------------------------------------------|
A|----------------------------------------------------------------------------|
D|-0-0-0-0-0-0-5h6h7-0-0-0-0-0-0-10h11h12-0-0-0-0-0-0-5p0-3-0-0-0-0-0-0-5h6h7-|

E|----------------------------------------------------------------------------|
B|----------------------------------------------------------------------------|
G|----------------------------------------------------------------------------|
D|----------------------------------------------------------------------------|
A|-------------0h1h2-3-3-3-3-3-3-0h3h4-5-------------3h4h5--------------------|
D|-3-3-3-3-3-3---------------------------5-5-5-5-5-5-------5-5-5-5-5-5-5h6h7--|

Ponte - "I'm gonna make you, I'm gonna break you [...]":

E|----------------------------------------------------------------------------|
B|-------------------------------------------------------------12b13-12b13----|
G|-------------------------------------------------------------------------10-|
D|----------------------------------------------------------------------------|
A|----------------------------------------------------------------------------|
D|-0-0-0-0-0-0-5h6h7-0-0-0-0-0-0-10h11h12-0-0-0-0-0-0-5p0-3-0-----------------|

Solo 2 - repetir várias vezes cada:

E|---------------------------------------------------------------------------|
B|---------------------------------------------------------------------------|
G|-7-9-10-12-14-15-18-19-----------------------------------------------------|
D|---------------------------------------------------------------------------|
A|-5-7-8--10-12-13-16-17-----------------------------------------------------|
D|---------------------------------------------------------------------------|


Estrutura:

Riff principal x8 (OUTRO após 6)
Pré refrão + Refrão
Solo 1
Andamento
Ponte
Riff principal x4 (OUTRO após 2)
Pré refrão + Refrão
Andamento
Ponte
Riff principal x4 (OUTRO após 2)
Pré refrão
Ponte
Riff Principal x4 (OUTRO após 2)
Pré refrão + Refrão
Riff principal x4
Solo 2
Refrão estendido

ACORDES PARA GUITARRA

PIANO UKELELE


COMENTARIOS

Aún no hay comentarios,

¡escribe el primero!

Escribe una pregunta, duda o comentario sobre esta canción, te responderemos a la brevedad.

Las más tocadas de Muse

Toca una Canción al Azar de Muse