Undisclosed Desires
Muse
Acordes

Subida por AARONLIENQUEO
Álbum: The Resistance ( 2009)


Más Versiones
Ver. 2 Ver. 3 Ver. 4 Ver. 5 Ver. 6
+A
-A
Intro 2x: Am Em 

Riff intro:
E|--------------------------------------|
B|-1---------1---------0---------0------|
G|----2---------2---------0---------0---| (2X)
D|------2---------2---------2---------2-|
A|--------------------------------------|
E|--------------------------------------|

Riff: (Quando o vocalista começa a cantar)

E|--------------------------------------|
B|-1---------1---------0---------0------|
G|----0---------0---------0---------0---| (Até o refrão)
D|------2---------2---------2---------2-|
A|--------------------------------------|
E|--------------------------------------|

C
I know you've suffered
Em
But I don't want you to hide
C
It's cold and loveless
Em
I won't let you be denied

C
Soothing
Em
I'll make you feel pure
C
Trust me
Em
You can be sure

(Refrão)

Riff refrão:

E|---0------------0------------0--------------------|
B|-1-----1------1-----1-0----0-----0--------3---0---|
G|-----2------------0------------0--------0-------2-| (4X)
D|---------2-------------------------0--------0-----|
A|--------------------------------------------------|
E|--------------------------------------------------|

Am C Em G
I want to reconcile the violence in your heart
Am C Em G
I want to recognise your beauty's not just a mask
Am C Em G
I want to exorcise the demons from your past
Am C Em G C
I want to satisfy the undisclosed desires in your heart

You trick your lovers
Em
That you're wicked and divine
C
You may be a sinner
Em
But your innocence is mine
C
Please me
Em
Show me how it's done
C
Tease me
Em
You are the one

(Refrão)
Am C Em G
I want to reconcile the violence in your heart
Am C Em G
I want to recognise your beauty's not just a mask
Am C Em G
I want to exorcise the demons from your past
Am C Em G C
I want to satisfy the undisclosed desires in your heart

( Am Em ) (2x)

C
Please me
Em
Show me how it's done
C
Tease me
Em
You are the one

(chorus)
Am C Em G
I want to reconcile the violence in your heart
Am C Em G
I want to recognise your beauty's not just a mask
Am C Em G
I want to exorcise the demons from your past
Am C Em G C
I want to satisfy the undisclosed desires in your heart

( Am Em ) (2x)

Riff final:

E|--------------------------------------|
B|-1---------1---------0---------0------|
G|----2---------0---------0---------0---| (2X)
D|------2---------2---------2---------2-|
A|--------------------------------------|
E|--------------------------------------|

ACORDES PARA GUITARRA

PIANO UKELELE
Am
Em
C
G


COMENTARIOS

Aún no hay comentarios,

¡escribe el primero!

Escribe una pregunta, duda o comentario sobre esta canción, te responderemos a la brevedad.

Las más tocadas de Muse

Toca una Canción al Azar de Muse
Am
Em
C
G