Hysteria
Muse
Acordes

Subida por JasonUsabs
Álbum: Absolution ( 2003)


Más Versiones
Ver. 2 Ver. 3 Ver. 4 Ver. 5
+A
-A
Intro Baixo

Intro Guitarra:

E|---------------------------------------------|
B|---------------------------------------------|
G|---------------------------------------------|
D|---------------------------------------------|
A|---------------------------------------------|
E|-6-6-6-6-6b-6b-6b-6b-6b-6b-6b-6b-6b-6b-6b...-|

E|---------------------------------------------|
B|---------------------------------------------|
G|---------------------------------------------|
D|---------------------------------------------|
A|---------------------------------------------|
E|-7-7-7-7-7b-7b-7b-7b-7b-7b-7b-7b-7b-7b-7b...-|

E|---------------------------------------------|
B|---------------------------------------------|
G|---------------------------------------------|
D|---------------------------------------------|
A|---------------------------------------------|
E|-8-8-8-8-8b-8b-8b-8b-8b-8b-8b-8b-8b-8b-8b...-|

E|----------------------------------|
B|----------------------------------|
G|----------------------------------|
D|----------------------------------|
A|----------------------------------|
E|-10-10-10b-10b-10b-10b-10b-10...--|

E|---------------------------------------------------------------------|
B|---------------------------------------------------------------------|
G|---------------------------------------------------------------------|
D|---------------------------------------------------------------------|
A|---------------------------------------------------------------------|
E|-11/-12/-13/-14/-15/-16/-17-18/-19/-18-17-16-15-14-13-12-11--|

BASS ADAPTED FOR GUITAR (INTRO MUSE LIVE AT READING FESTIVAL 2011 AND OTHERS...)
(lembrando que aqui, o baixo toca este riff 2 vezes, e o matt entra tocando o mesmo depois,
porém abafado e apenas com palhetadas p/ baixo)

E|-----------------------------------------|
B|-----------------------------------------|
G|-----------------------------------------|
D|-----------------------------------------|
A|--0-0-10-0-10-12-0-10-0-7-0-8-8-7-5-7----|
E|-----------------------------------------|



E|-------------------------------------------|
B|-------------------------------------------|
G|-------------------------------------------|
D|-------------------------------------------|
A|-------------------10--------10--10--10--12|
E|--0-0-10-0-10-12-0----0-12-0-------0-------|

E|----------------------------------------|
B|----------------------------------------|
G|----------------------------------------|
D|--0-0-10-0-10-12-0-10-0-10-9-0-9-8-0-8-7|
A|----------------------------------------|
E|----------------------------------------|

E|----------------------------------------|
B|----------------------------------------|
G|----------------------------------------|
D|----------------------------------------|
A|---0-10-0-10-12-0-10-0-7-0-8-8-7-5-7----|
E|----------------------------------------|

Parte 1: 2x

E|-------------------------------------------|
B|-----------------------------12b-r12--10---|
G|--14--14-14-14--14-14-14-------------------|
D|---x---x--x--x---x--x--x-------------------|
A|--12--12-12-12--12-12-12-------------------|
E|-------------------------------------------|

E|-------------------------------------------|
B|-----------------------------12b-r12--10---|
G|--13--13-13-13--13-13-13-------------------|
D|---x---x--x--x---x--x--x-------------------|
A|--11--11-11-11--11-11-11-------------------|
E|-------------------------------------------|

E|-------------------------------------------|
B|-----------------------------12b-r12--10---|
G|--10--10-10-10--10-10-10-------------------|
D|---x---x--x--x---x--x--x-------------------|
A|---8---8--8--8---8--8--8-------------------|
E|-------------------------------------------|

E|-----------------------------------|
B|------------------------12b-r12~~--|
G|---9--9-9-9--9-9-9-----------------|
D|---x--x-x-x--x-x-x-----------------|
A|---7--7-7-7--7-7-7-----------------|
E|-----------------------------------|

Baixo

It's bugging me
Grating me
And twisting me around

Yeah I'm endlessly
Caving in
And turning inside out

Passagem Pré Refrão:

A5
P.M. . . . . . . . . . . . . . . .
E|------------------------------------------|
B|------------------------------------------|
G|------------------------------------------|
D|------------------------------------------|
A|-7-7-7-7-7-7-7-7-7-7-7-7-7-7-7-7----------|
E|-5-5-5-5-5-5-5-5-5-5-5-5-5-5-5-5----------|

Refrão 1: (2x)

'Cause I want it now
I want it now
Give me your heart and your soul
And I'm breaking out
I'm breaking out
Last chance to lose control

(com alavanca)
C5 G5
E|-------------------------------------------------|
B|-------------------------------------------------|
G|--5--5-5-5-5-5-5-5-5-5---------------------------|
D|--5--5-5-5-5-5-5-5-5-5-----5--5-5-5-5-5-5-5-5-5--|
A|--3--3-3-3-3-3-3-3-3-3-----5--5-5-5-5-5-5-5-5-5--|
E|---------------------------3--3-3-3-3-3-3-3-3-3--|

D5 A5
E|-------------------------------------------------|
B|-------------------------------------------------|
G|--7--7-7-7-7-7-7-7-7-7---------------------------|
D|--7--7-7-7-7-7-7-7-7-7-----7--7-7-7-7-7-7-7-7-7--|
A|--5--5-5-5-5-5-5-5-5-5-----7--7-7-7-7-7-7-7-7-7--|
E|---------------------------5--5-5-5-5-5-5-5-5-5--|

Repetir Parte 1: (1x)

E|-------------------------------------------|
B|-----------------------------12b-r12--10---|
G|--14--14-14-14--14-14-14-------------------|
D|---x---x--x--x---x--x--x-------------------|
A|--12--12-12-12--12-12-12-------------------|
E|-------------------------------------------|

E|-------------------------------------------|
B|-----------------------------12b-r12--10---|
G|--13--13-13-13--13-13-13-------------------|
D|---x---x--x--x---x--x--x-------------------|
A|--11--11-11-11--11-11-11-------------------|
E|-------------------------------------------|

E|-------------------------------------------|
B|-----------------------------12b-r12--10---|
G|--10--10-10-10--10-10-10-------------------|
D|---x---x--x--x---x--x--x-------------------|
A|---8---8--8--8---8--8--8-------------------|
E|-------------------------------------------|

E|-----------------------------------|
B|------------------------12b-r12~~--|
G|---9--9-9-9--9-9-9-----------------|
D|---x--x-x-x--x-x-x-----------------|
A|---7--7-7-7--7-7-7-----------------|
E|-----------------------------------|

Baixo

Yeah It's holding me
Morphing me
And forcing me to strive
To be endlessly
Cool within
And dreaming I'm alive.

(nesta parte "yeah It's holding meeee........." repetir o inicio, ou o mesmo que o baixo)

Refrão 2: (2x)

'Cause I want it now
I want it now
Give me your heart and your soul
And I'm breaking out
I'm breaking out
Last chance to lose control

(alavanca)
C5 G5
E|-------------------------------------------------|
B|-------------------------------------------------|
G|--5--5-5-5-5-5-5-5-5-5---------------------------|
D|--5--5-5-5-5-5-5-5-5-5-----5--5-5-5-5-5-5-5-5-5--|
A|--3--3-3-3-3-3-3-3-3-3-----5--5-5-5-5-5-5-5-5-5--|
E|---------------------------3--3-3-3-3-3-3-3-3-3--|

D5 A5
E|-------------------------------------------------|
B|-------------------------------------------------|
G|--7--7-7-7-7-7-7-7-7-7---------------------------|
D|--7--7-7-7-7-7-7-7-7-7-----7--7-7-7-7-7-7-7-7-7--|
A|--5--5-5-5-5-5-5-5-5-5-----7--7-7-7-7-7-7-7-7-7--|
E|---------------------------5--5-5-5-5-5-5-5-5-5--|

C5 G5
E|-------------------------------------------------|
B|-------------------------------------------------|
G|--5--5-5-5-5-5-5-5-5-5---------------------------|
D|--5--5-5-5-5-5-5-5-5-5-----5--5-5-5-5-5-5-5-5-5--|
A|--3--3-3-3-3-3-3-3-3-3-----5--5-5-5-5-5-5-5-5-5--|
E|---------------------------3--3-3-3-3-3-3-3-3-3--|

D5 A5
P.M . . . . . . . .
E|----------------------------------------------------|
B|----------------------------------------------------|
G|--7--7-7-7-7-7-7-7-7-7------------------------------|
D|--7--7-7-7-7-7-7-7-7-7-----7--7-7-7-7-7-7-7-7-7-----|
A|--5--5-5-5-5-5-5-5-5-5-----7--7-7-7-7-7-7-7-7-7-----|
E|---------------------------5--5-5-5-5-5-5-5-5-5-12/-|

Parte 3:

E|------------------------------------------|
B|------------------------------------------|
G|------------------------------------------|
D|------------------------------------------|
A|------------------------------------------|
E|--0-0-10-0-10-12-0-10-0-10-9-0-9-8-0-8-7--|

E|------------------------------------------|
B|------------------------------------------|
G|------------------------------------------|
D|------------------------------------------|
A|------------------------------------------|
E|--0-10-0-10-12-0-10-0-10-9-0-9-8-0-8-7----|

E|------------------------------------------|
B|------------------------------------------|
G|------------------------------------------|
D|------------------------------------------|
A|------------------------------------------|
E|--0-10-0-10-12-0-10-0-10-9-0-9-8-0-8-7----|

E|------------------------------------------|
B|------------------------------------------|
G|------------------------------------------|
D|------------------------------------------|
A|------------------------------------------|
E|--0-10-0-10-12-0-15-0-12-0-15-15-0-15-17--|

Solo 1: (2x)

E|----------------------------------------------------|
B|--------17-17-------18-18-------18-18-17-17----17---|
G|--14-14-------14-14-------14-14-------------14------|
D|----------------------------------------------------|
A|----------------------------------------------------|
E|----------------------------------------------------|

E|----------------------------------------------------|
B|--------17-17-------18-18-------18-18-17-17----17---|
G|--13-13-------13-13-------13-13-------------13------|
D|----------------------------------------------------|
A|----------------------------------------------------|
E|----------------------------------------------------|

E|--------------17-17-------------------------------------------------------------------------|
B|--------18-18------------18-18-------17-17-------17-17-------18-18-------18-18-17-17----17--|
G|--14-14------------14-14-------14-14-------14-14-------14-14-------14-14-------------14-----|
D|--------------------------------------------------------------------------------------------|
A|--------------------------------------------------------------------------------------------|
E|--------------------------------------------------------------------------------------------|

Ponte Solo 2:

E|-----------------------------------------------------|
B|--17-----------15-----------13----------12-----------|
G|-----14-14-14----------------------------------------|
D|------------------15-15-15-----14-14-14----12-12-12--|
A|-----------------------------------------------------|
E|-----------------------------------------------------|

Solo 2: 2x

E|---------------------------------------------------------------------------------------|
B|--13---------12b-r12-10-12-12--------12-13-13-15-15---------13b-r13-12-13-13-----------|
G|-----12-----------------------12--------------------14-----------------------14--------|
D|--------14-----------------------12--------------------13-----------------------14-----|
A|---------------------------------------------------------------------------------------|
E|---------------------------------------------------------------------------------------|

E|-----------------------------------------------------------------------------------------|
B|--15-13-12-13---------12b-r12-10-12-12--------12-13-13-14b-------13b-r13-12-13-13--------|
G|--------------12-----------------------12-----------------------------------------14-----|
D|-----------------14-----------------------12----------------14b----------------------14--|
A|-----------------------------------------------------------------------------------------|
E|-----------------------------------------------------------------------------------------|

E|-------------|
B|--15-13-12---|
G|-------------|
D|-------------|
A|-------------|
E|-------------|

Refrão: (2x)

(alavanca)

'Cause I want it now
I want it now
Give me your heart and your soul
And I'm breaking out
I'm breaking out
Last chance to lose control

C5 G5
E|-------------------------------------------------|
B|-------------------------------------------------|
G|--5--5-5-5-5-5-5-5-5-5---------------------------|
D|--5--5-5-5-5-5-5-5-5-5-----5--5-5-5-5-5-5-5-5-5--|
A|--3--3-3-3-3-3-3-3-3-3-----5--5-5-5-5-5-5-5-5-5--|
E|---------------------------3--3-3-3-3-3-3-3-3-3--|

D5 A5
E|-------------------------------------------------|
B|-------------------------------------------------|
G|--7--7-7-7-7-7-7-7-7-7---------------------------|
D|--7--7-7-7-7-7-7-7-7-7-----7--7-7-7-7-7-7-7-7-7--|
A|--5--5-5-5-5-5-5-5-5-5-----7--7-7-7-7-7-7-7-7-7--|
E|---------------------------5--5-5-5-5-5-5-5-5-5--|

C5 G5
E|-------------------------------------------------|
B|-------------------------------------------------|
G|--5--5-5-5-5-5-5-5-5-5---------------------------|
D|--5--5-5-5-5-5-5-5-5-5-----5--5-5-5-5-5-5-5-5-5--|
A|--3--3-3-3-3-3-3-3-3-3-----5--5-5-5-5-5-5-5-5-5--|
E|---------------------------3--3-3-3-3-3-3-3-3-3--|

D5 A5
P.M . . . . . . . .
E|----------------------------------------------------|
B|----------------------------------------------------|
G|--7--7-7-7-7-7-7-7-7-7------------------------------|
D|--7--7-7-7-7-7-7-7-7-7-----7--7-7-7-7-7-7-7-7-7-----|
A|--5--5-5-5-5-5-5-5-5-5-----7--7-7-7-7-7-7-7-7-7-----|
E|---------------------------5--5-5-5-5-5-5-5-5-5-12/-|

Final:

E|------------------------------------------|
B|------------------------------------------|
G|------------------------------------------|
D|------------------------------------------|
A|------------------------------------------|
E|--0-0-10-0-10-12-0-10-0-10-9-0-9-8-0-8-7--|

E|------------------------------------------|
B|------------------------------------------|
G|------------------------------------------|
D|------------------------------------------|
A|------------------------------------------|
E|--0-10-0-10-12-0-10-0-10-9-0-9-8-0-8-7----|

E|------------------------------------------|
B|------------------------------------------|
G|------------------------------------------|
D|------------------------------------------|
A|------------------------------------------|
E|--0-10-0-10-12-0-10-0-10-9-0-9-8-0-8-7----|

E|------------------------------------------|
B|------------------------------------------|
G|------------------------------------------|
D|------------------------------------------|
A|------------------------------------------|
E|--0-10-0-10-12-0-10-0-10-9-0-9-8-0-8-7----|

E|------------------------------------------|
B|------------------------------------------|
G|------------------------------------------|
D|------------------------------------------|
A|------------------------------------------|
E|--0-10-0-10-12-0-10-0-10-9-0-9-8-0-8-7----|

E|------------------------------------------|
B|------------------------------------------|
G|------------------------------------------|
D|------------------------------------------|
A|------------------------------------------|
E|--0-10-0-10-12-0-10-0-10-9-0-9-8-0-8-7---|

Ao vivo, matt faz isso:

E|-----------------------------------------------------------------|
B|------12----12--------14----14--------15----15--------14----14---|
G|------14p16-14p16-----16p18-16p18-----17p19-17p19-----16p18-16p18|
D|-----------------------------------------------------------------|
A|-----------------------------------------------------------------|
E|-000--------------000-------------000-------------000------------| 2x

E|---------------------------------------------|
B|---------------------------------------------|
G|---------------------------------------------|
D|---------------------------------------------|
A|---------------------------------------------|
E|-12-0-10-0-10-12-0-10-0-10-9-0-9-8-0-8-7----|

E|-----------------------------------------------------------------------------|
B|-----------------------------------------------------------------------------|
G|----------------------------------------2p0p2p0p2p0p2p0-2p3r2p0--------------|
D|-------------------------------------2--------------------------2-2-2----(2)-|
A|-------------------------------------2--------------------------2-2-2----(2)-|
E|--0-10-0-10-12-0-10-0-10-9-0-9-8-0-8-0--------------------------0-0-0-12-0--|

ACORDES PARA GUITARRA

PIANO UKELELE
A5
C5
G5
D5


COMENTARIOS

Aún no hay comentarios,

¡escribe el primero!

Escribe una pregunta, duda o comentario sobre esta canción, te responderemos a la brevedad.

Las más tocadas de Muse

Toca una Canción al Azar de Muse
A5
C5
G5
D5