Assassin
Muse
Acordes

Subida por OnesLopez
Álbum: Black Holes and Revelations ( 2006)


Más Versiones
Ver. 2
+A
-A


Album:Black Holes & Revelations
tabbed by punk man dude

This song kicks ass.
Enjoy!

Intro(part 1)x2
clean
e------------------------------------------------------|
B-3-3-2-2-3-3-2-2-3-3-2-2-3-3-2-2-3-3-2-2-3-3-2-2------|
G-3-3-2-2-3-3-2-2-3-3-2-2-3-3-2-2-3-3-2-2-3-3-2-2------|
D------------------------------------------------------|
A------------------------------------------------------|
D------------------------------------------------------|

e------------------------------------------------------|
B-4-4-3-3-4-4-3-3-4-4-3-3-4-4-3-3-4-4-3-3-4-4-3-3------|
G-3-3-0-0-3-3-0-0-3-3-0-0-3-3-0-0-3-3-0-0-3-3-0-0------|
D------------------------------------------------------|
A------------------------------------------------------|
D------------------------------------------------------|

Intro(part 2)x2
pm. . . . . . . . . . . . . . . . . . . . . . . . . . . . . . . . . . . .
e---------------------------------------------------------------------------|
B---------------------------------------------------------------------------|
G---------------------------------------------------------------------------|
D---------------------------------------------------------------------------|
A---------------------------------------------------------------------------|
D-8-7-7-8-7-7-8-7-7-8-7-7-8-7-7-8-7-7-8-5-5-8-5-5-8-5-5-8-5-5-8-5-5-8-5-5---|
|
|guitar2
| . . . . . . . . . . . . . . . . . . . .(staccato)
e----------------------------------------------------------------------|
B---10-11-10-11-10-----10-11-10-11-10---8--8--8-8-8-----8--8--8-8-8----|
G----------------------------------------------------------------------|
D----------------------------------------------------------------------|
A----------------------------------------------------------------------|
D----------------------------------------------------------------------|

Intro(part 3)x2
e---------|---------------------------------------------------------------------------------|
B---------|---------------------------------------------------------------------------------|
G--drum---|---------------------------------------------------------------------------------|
D--fill---|---------------------------------------------------------------------------------|
A---------|--------------------------------------------------------------------8-8-8--------|
D---------|--8-0-0-8-0-0-8-0-0-8-0-0-8-0-0-8-0-0-8-0-0-8-0-0-8-0-0-8-0-0-8-0-0-8-8-8--------|

Verse 1
riffx2
e-------------------------------------------------------------------------------------|
B-------------------------------------------------------------------------------------|
G-------------------------------------------------------------------------------------|
D-------------------------------------------------------------------------------------|
A--8p5-5-5-5-5-(x7)--8p7-7-7-7-7-(x6)--8h10-10-10-10-10-(x7)--10h12-12-12-12-12-(x5)--|
D-------------------------------------------------------------------------------------|


Chorus x2
e------------------------------------------------------------------------------|
B------------------------------------------------------------------------------|
G------------------------------------------------------------------------------|
D------------------------------------------------------------------------------|
A------------------------------------------------------------------------------|
D-7p3-3-3-3-3-(x9)--9h10-10-10-10-10-(x3)--8p5-5-5-5-5-(x9)--8p0-0-0-0-0-(x3)--|


Link(part 1)x1.5
pm. . . . . . . . . . . . . . . . . . . . . . . . . . . . . . . . . . . .
e---------------------------------------------------------------------------|
B---------------------------------------------------------------------------|
G---------------------------------------------------------------------------|
D---------------------------------------------------------------------------|
A---------------------------------------------------------------------------|
D-8-7-7-8-7-7-8-7-7-8-7-7-8-7-7-8-7-7-8-5-5-8-5-5-8-5-5-8-5-5-8-5-5-8-5-5---|
|
|guitar2
| . . . . . . . . . . . . . . . . . . . .(staccato)
e----------------------------------------------------------------------|
B---10-11-10-11-10-----10-11-10-11-10---8--8--8-8-8-----8--8--8-8-8----|
G----------------------------------------------------------------------|
D----------------------------------------------------------------------|
A----------------------------------------------------------------------|
D----------------------------------------------------------------------|

Link(part 2)x2
e---------|---------------------------------------------------------------------------------|
B---------|---------------------------------------------------------------------------------|
G--drum---|---------------------------------------------------------------------------------|
D--fill---|---------------------------------------------------------------------------------|
A---------|--------------------------------------------------------------------8-8-8--------|
D---------|--8-0-0-8-0-0-8-0-0-8-0-0-8-0-0-8-0-0-8-0-0-8-0-0-8-0-0-8-0-0-8-0-0-8-8-8--------|

Verse 2
e-------------------------------------------------------------------------------------|
B-------------------------------------------------------------------------------------|
G-------------------------------------------------------------------------------------|
D-------------------------------------------------------------------------------------|
A--8p5-5-5-5-5-(x7)--8p7-7-7-7-7-(x6)--8h10-10-10-10-10-(x7)--10h12-12-12-12-12-(x5)--|
D-------------------------------------------------------------------------------------|

Chorus x2
e------------------------------------------------------------------------------|
B------------------------------------------------------------------------------|
G------------------------------------------------------------------------------|
D------------------------------------------------------------------------------|
A------------------------------------------------------------------------------|
D-7p3-3-3-3-3-(x9)--9h10-10-10-10-10-(x3)--8p5-5-5-5-5-(x9)--8p0-0-0-0-0-(x3)--|

Link

. . . . . (staccato)
e--------------------|
B---10-11-10-11-10---|
G--------------------|
D--------------------|
A--------------------|
D--------------------|

Outro
Link(part 1)x2
pm. . . . . . . . . . . . . . . . . . . . . . . . . . . . . . . . . . . .
e---------------------------------------------------------------------------|
B---------------------------------------------------------------------------|
G---------------------------------------------------------------------------|
D---------------------------------------------------------------------------|
A---------------------------------------------------------------------------|
D-8-7-7-8-7-7-8-7-7-8-7-7-8-7-7-8-7-7-8-5-5-8-5-5-8-5-5-8-5-5-8-5-5-8-5-5---|
|
|guitar2
| . . . . . . . . . . . . . . . . . . . .(staccato)
e----------------------------------------------------------------------|
B---10-11-10-11-10-----10-11-10-11-10---8--8--8-8-8-----8--8--8-8-8----|
G----------------------------------------------------------------------|
D----------------------------------------------------------------------|
A----------------------------------------------------------------------|
D----------------------------------------------------------------------|

heavy pm . . . . . . . . . . . . .
e--------------------------------------|
B--------------------------------------|
G--------------------------------------|
D----------------------------------0---|
A----------------------------------0---|
D--8-7-0-7-6-0-5-6-0-5-4-0-4-3-2-1-0---|


lyrics

war is overdue
but time has come for you
to shoot your leaders down
and join forces underground


lose control (losing control)
and increasing pace (increasing pace)
warped and we waste (warped and we waste)
in time to erase (crime to erase)
whatever they say (ever they say)
these people are torn (people are torn)
wild and bereft (wild and bereft)
assassin is born (assassin is born)

yeh,woh,yehhh


pose and disagree
destroy demonocracy


lose control (losing control)
and increasing pace (increasing pace)
warped and we waste (warped and we waste)
in time to erase (crime to erase)
whatever they say (whatever they say)
these people are torn (people are torn)
wild and bereft (wild and bereft)
assassin is born (assassin is born)

ACORDES PARA GUITARRA

PIANO UKELELE


COMENTARIOS

Aún no hay comentarios,

¡escribe el primero!

Escribe una pregunta, duda o comentario sobre esta canción, te responderemos a la brevedad.

Las más tocadas de Muse

Toca una Canción al Azar de Muse