Big Freeze
Muse
Acordes

Subida por arjuenisperimetro
Álbum: The 2nd Law ( 2012)


Más Versiones
Ver. 2 Ver. 3 Ver. 4 Ver. 5 Ver. 6
+A
-A
Intro:

E|---------------------|
B|---8---9----8---9----|
G|---8---8----8---8----|
D|---8---8----8---8----|
A|---6---11---6---11---|
E|---------------------|

Versos:

E|------------------------------------------------------------------------|
B|---8---9---8---8---8------------------8------------------8---9---8---8--|
G|---8---8---8---8---8---12---13---13---8---12---13---14---8---8---8---8--|
D|---8---8---8---8---8---13---13---13---8---13---13---15---8---8---8---8--|
A|---6---6---6---6---6---10---11---11---6---10---11---12---6---6---6---6--|
E|------------------------------------------------------------------------|

Ponte:

E|------------------------------------------|
B|--11---11---11---11---11---11---11---11---|
G|--12---13---12---12---12---13---13---12---|
D|--13---13---13---13---13---13---13---13---|
A|------------------------------------------|
E|------------------------------------------|

E|------------------------------------------|
B|--11---11---13---13---11---11---11---11---|
G|--12---12---13---14---12---10---13---12---|
D|--13---11---13---13---13---12---13---13---|
A|------------------------------------------|
E|------------------------------------------|

Refrão:

E|------------------------------------------|
B|--13---15---13---11---13---15---16---18---|
G|--12---15---13---12---12---15---17---19---|
D|--13---15---13---13---13---15---18---20---|
A|------------------------------------------|
E|------------------------------------------|

Solo:

E|----------------------------|--------------------------11-11-11--11---|
B|----------------------------|------------------9--9b-9---9--9--9-8----|
G|--10b---------8-10b--8~---7-|---5----------5-8------------------------|
D|----------6-8---------------|------------5----------------------------|
A|----------------------------|--------5-6------------------------------|
E|----------------------------|-----------------------------------------|

E|----------------------------------------------------|
B|--20--21-20--18-16-18-16~--20b--20------------------|
G|-------------------------------------------5---3----|
D|----------------------------------------------------|
A|----------------------------------------------------|
E|----------------------------------------------------|

E|----------------------------11-----|
B|--16------15-------13--11-9---9----|
G|-------------------------------12--| x3
D|-----------------------------------|
A|-----------------------------------|
E|-----------------------------------|

E|------------------------------------11-----|
B|--16-18-18b-18-16-15-------13--11-9---9----|
G|---------------------------------------12--|
D|-------------------------------------------|
A|-------------------------------------------|
E|-------------------------------------------|

Final:

E|---11~-----|
B|-----------|
G|---8~------|
D|-----------|
A|-----------|
E|-----------|

ACORDES PARA GUITARRA

PIANO UKELELE


COMENTARIOS

Aún no hay comentarios,

¡escribe el primero!

Escribe una pregunta, duda o comentario sobre esta canción, te responderemos a la brevedad.

Las más tocadas de Muse

Toca una Canción al Azar de Muse