Can't Take My Eyes Off You
Muse
Acordes

Subida por Kvarela97


Más Versiones
Ver. 2 Ver. 3 Ver. 4 Ver. 5 Ver. 6

Cambiar Cifrado
Americano Latino

Cambiar Tonalidad
-1 +1

Partir Pantalla Imprimir FAQ

+A
-A


Ver solo la LETRA
Intro
E-----------0---|
B|-----------12--|
G|-9---------9---| bend the notes with
D|-10--------10--| whammy bar
A|-10--------10--|
E|---------------|

E-------------------------------------|
B|-------------------5-----------------|
G|-------------------5-----------------|
D|-------------------5-----------------|
A|-------------------3-----------------|
E|-------------------------------------|
you're just too good to be true


E-----------------------------------|
B|-------------------5---------------|
G|-------------------4---------------|
D|-------------------5---------------|
A|-------------------3---------------|
E|-----------------------------------|
can't keep my eyes off you


E----------------3---------------------|
B|----------------5---------------------|
G|----------------3---------------------|
D|----------------5---------------------|
A|----------------3---------------------|
E|--------------------------------------|
you feel like heaven to touch

E-----------------------------------|
B|-----------------------------------|
G|----------2------------------------|
D|----------3------------------------|
A|----------3------------------------|
E|----------1------------------------|
i wanna hold you so much


E-------------------------------------|
B|-------------------------------------|
G|-----------------1-------------------|
D|-----------------3-------------------|
A|-----------------3-------------------|
E|-----------------1-------------------|
at long lost love has arrived

E----------------3----------------|
B|----------------5----------------|
G|----------------5----------------|
D|----------------5----------------|
A|----------------3----------------|
E|---------------------------------|
and i thank god i'm alive

E------------------------------------------|
B|------------------------------------------|
G|-------------------2-----------1----------|
D|-------------------3-----------3----------|
A|-------------------3-----------3----------|
E|-------------------1-----------1----------|
you're just too good to be true can't take my eyes off you

E-x-x-x--x-x-x--x-x-x-x--|
B|-x-x-x--x-x-x--x-x-x-x--|
G|-x-x-x--x-x-x--x-x-x-x--|
D|-x-x-x--x-x-x--x-x-x-x--|
A|-x-x-x--x-x-x--x-x-x-x--|
E|-x-x-x--x-x-x--x-x-x-x--|

E-----------------------|
B|---------------1-0-----|
G|-1-2--1-2--1-2------2--|
D|-----------------------| X 3
A|-----------------------|
E|-----------------------|

E--------------------------|
B|--------------------------|
G|-1-2--1-2--2-2-222222222--|
D|--------------------------|
A|--------------------------|
E|--------------------------|
Chorus

I love you

Dm G
E-5-------------------3--------------------------------|
B|-6-------------------3--------------------------------|
G|-7-------------------4--------------------------------|
D|-7-------------------5--------------------------------|
A|-5-------------------5--------------------------------|
E|---------------------3--------------------------------|
baby and if it's quite alright i need you

C A
E-3----------------------5------------------------------|
B|-5----------------------5------------------------------|
G|-5----------------------6------------------------------|
D|-5----------------------7------------------------------|
A|-3----------------------7------------------------------|
E|------------------------5------------------------------|
baby to cure my lonely heart i want you

Dm G C A
E-5-----3------------------3----------5--|
B|-6-----3------------------5----------5--|
G|-7-----4------------------5----------6--|
D|-7-----5------------------5----------7--|
A|-5-----5------------------3----------7--|
E|-------3-----------------------------5--|
baby trust in me when i say

Dm
Oh pretty baby

G
don't bring me down i pray

C
oh pretty baby

A
now that i've found this day

Dm
Oh let me love you baby

G
let me love you

Ending

E-0-------0------------0---------0--------------|
B|-12------11---13slide-10--------9----------8---|
G|-9-------9------------9---------9----------9---|
D|-10------10-----------10--------10---------10--|
A|-----------------------------------------------|
E|-----------------------------------------------|

Let each note ring out slightly and then really ring out final chord
and bend with whammy bar

ACORDES PARA GUITARRA

PIANO UKELELE
Dm
G
C
A


COMENTARIOS

Aún no hay comentarios,

¡escribe el primero!

Escribe una pregunta, duda o comentario sobre esta canción, te responderemos a la brevedad.

Las más tocadas de Muse

Toca una Canción al Azar de Muse
Dm
G
C
A