Defector
Muse
Acordes

Subida por Serclepa
Álbum: Drones ( 2015)



+A
-A
Afinação: DADGBE


Intro

E|--------------------------------------------------|
B|--------------------------------------------------|
G|--------------------------------------------------|
D|--------------------------------------------------|
A|-----------------------------------(X2)-----------|
D|--0--12--0--12--0-0-12--0--12-----------------|

Refrão

E|--------------------------------------------X---X---X----5~------------------|
B|--------------------------------------------X---X---X----6~------------------|
G|--------------------------------------------X---X---X----5~------------------|
D|-----------------------------6-6-7-7-7-7----X---X---X------------------------|
A|-----------------------------6-6-7-7-7-7----X---X---X------------------------|
D|--0--12--0--12--0-0-10-0--6-6-7-7-7-7----X---X---X------------------------|

E|---6-6-6-6-6-6-6-6-------7-7-7---------------------------------------------|
B|---7-7-7-7-7-7-7-7-------8-8-8---------------------------------------------|
G|---6-6-6-6-6-6-6-6-------7-7-7---------------------------------------------|
D|---------------------------------------------------------------------------|
A|---------------------------------------------------------------------------|
D|-----------------------------------4-5-7-8--7------------------------------|

Fim do refrão

E|--------------------------------------------------|
B|--------------------------------------------------|
G|--------------------------------------------------|
D|--------------------------------------------------|
A|-----------------------------------(X2)-----------|
D|--0--12--0--12--0-0-12--0--12-----------------|

VERSO - BAIXO
Ao fim do verso
E|-----------------------------------------------|
B|-----------------------------------------------|
G|-----------------------------------------------|
D|-----------------------------------------------|
A|-----------------------------------------------|
D|-----------------------------------4-5-7-8--7--|


VERSO - BAIXO
Em certa parte, Matt faz isso
E|-------------------------------------------------------------------------------|
B|-------------------------------------------------------------------------------|
G|----------------------------------------------------------4-4-4-4--------------|
D|----------7-7-7-7---------7-7-7-7---------7-7-7-7------------------(0)---------|
A|--5-5-5-5---------5-5-5-5---------4-4-4-4---------5-5-5-5----------------------|
D|-------------------------------------------------------------------------------|

E|------------------------------------------------------------------------------|
B|------------------------------------------------------------------------------|
G|----------3-3-3-3---------3-3-3-3-----4-4-4-----------------------------------|
D|------------------------------------------------------------------------------|
A|--4-4-4-4---------4-4-4-4-----------------------------------------------------|
D|--------------------------------------------------5-4-5-7-8--7----------------|


Solo

E|-14-14-14-14--17-17-17-15-15-15---14~-14-14-14-17-17-15-15------------------|
B|----------------------------------------------------------------------------|
G|--11-11-11-11-14-14-14-12-12-12---------11-11-11-14-14-12-12----------------|
D|----------------------------------------------------------------------------|
A|----------------------------------------------------------------------------|
D|----------------------------------------------------------------------------|

E|--14-14--19-19----20-20-----------15-15--19-19--18-18--17-17---------------|
B|-------------------------19-19---------------------------------------------|
G|----11-11--16-16--17-17--17-17----12-12--16-16--15-15--14-14---------------|
D|---------------------------------------------------------------------------|
A|---------------------------------------------------------------------------|
D|---------------------------------------------------------------------------|

E|-/14---14-14-17-17-15------/14~---14-14-17-17-15-15---14b-br---/19/-/20--14~/15~--/19~-18-/17--|
B|------------------------------------------------------------------------------------------------|
G|------11-11----14-14-12-------------11----14-14-12----------------------------------------------|
D|------------------------------------------------------------------------------------------------|
A|------------------------------------------------------------------------------------------------|
D|------------------------------------------------------------------------------------------------|

Segure a nota - vibratto
E|--22----21----19----18----19----18--17-------(22)--|
B|---------------------------------------------------|
G|---------------------------------------------------|
D|---------------------------------------------------|
A|---------------------------------------------------|
D|---------------------------------------------------|

Orquestra
Pré refrão
E|-----------------------------------------------|
B|-----------------------------------------------|
G|-----------------------------------------------|
D|-----------------------------------------------|
A|-----------------------------------------------|
D|-----------------------------------4-5-7-8--7--|

Solo

E|-14-14-14-14-17-17-17-15-15----14~-14--14-14-17-17-15-15------------------|
B|--------------------------------------------------------------------------|
G|--11-11-11-11-14-14-14-12-12----------11-11-11-14-14-12-12----------------|
D|--------------------------------------------------------------------------|
A|--------------------------------------------------------------------------|
D|--------------------------------------------------------------------------|
tremolo
E|--14-14--19-19--20-20--14-14----15-15--19-19--18-18-18-18-17-17-----------------|
B|---------------------------------------------------------------------------|
G|----11-11--16-16--17-17--11-11----12-12--16-16--15-15-15-15-14-14---------------|
D|---------------------------------------------------------------------------|
A|---------------------------------------------------------------------------|
D|---------------------------------------------------------------------------|

E|-/14---14-14-17-17-15------/14~-----14-14-17-17-15-15---14b-br---/19/-/20--14~/15~--/19~-18-/17--|
B|-------------------------------------------------------------------------------------------------|
G|------11-11----14-14-12--------11-11--11-11-14-14-12---------------------------------------------|
D|-------------------------------------------------------------------------------------------------|
A|-------------------------------------------------------------------------------------------------|
D|-------------------------------------------------------------------------------------------------|



Fim Segure a nota
E|-----22--------------------------------------------|
B|---------------------------------------------------|
G|---------------------------------------------------|
D|---------------------------------------------------|
A|---------------------------------------------------|
D|---------------------------------------------------|
************************************

NOMECLATURA:

| / slide up
| slide down
| h hammer-on
| p pull-off
| ~ vibrato
| + harmonic
| x Mute note
| b Bend
| pb Pre-bend
| br Bend release
| pbr Pre-bend release
| brb Bend release bend

ACORDES PARA GUITARRA

PIANO UKELELE


COMENTARIOS

Aún no hay comentarios,

¡escribe el primero!

Escribe una pregunta, duda o comentario sobre esta canción, te responderemos a la brevedad.

Las más tocadas de Muse

Toca una Canción al Azar de Muse