Execution Commentary (Acordes)

Muse

Subida por liz0409

Compartir


Imprimir FAQ
+A
-A

Texto

Desplazamiento

Transportador

Color de Fondo

Archivos

-A
+A
Tabbed By : Busby_bass
e-mail: *


Tuning:D A D G
Intro
G|---------------------------------------------------------------------------|
D|---------------------------------------------------------------------------|
A|------------------------0--------------------------------------------------|
D|-3-2-3-2-3--2-3-2-3-2-3---3--7-7-7-----------------------------------------|

Part 1
G|---------------------------------------------------------------------------|
D|---------------------------------------------------------------------------|
A|-0-2-0-3-00-5-0-6-777----16 times-----------------------------------------|
D|---------------------------------------------------------------------------|

Part 2
G|---------------------------------------------------------------------------|
D|---------------------------------------------------------------------------|
A|-0-3-0-3-0-5-3-------------------------------------------------------------|
D|---------------------------------------------------------------------------|

G|---------------------------------------------------------------------------|
D|---------------------------------------------------------------------------|
A|-0-3-0-3-0-----------------------------------------------------------------|
D|---------------------------------------------------------------------------|

G|---------------------------------------------------------------------------|
D|---------------------------------------------------------------------------|
A|-0-3-0-3-0-5-3-------------------------------------------------------------|
D|---------------------------------------------------------------------------|

G|---------------------------------------------------------------------------|
D|---------------------------------------------------------------------------|
A|-0-3-0-3-0-----------------------------------------------------------------|
D|---------------------------------------------------------------------------|

G|---------------------------------------------------------------------------|
D|---------------------------------------------------------------------------|
A|-0-3-0-3-0-543-0-3-0-3-0---------------------------------------------------|
D|---------------------------------------------------------------------------|

Repeat part 1 and then part 2 .

| /  slide up
|   slide down
| h  hammer-on
| p  pull-off
| ~  vibrato
| +  harmonic
| x  Mute note

Video Clip de Execution Commentary


ACORDES PARA GUITARRA

PIANO UKELELE


TOP 20: Las más tocadas de Muse


Toca una Canción al Azar de Muse

Acordes

Cerrar

21.53

x

78