Exo-politics
Muse
Acordes

Subida por ange
Álbum: Black Holes and Revelations ( 2006)


Más Versiones

+A
-A
Exo-Politics

Standard Tuning


Intro and Verse 1 "Open skies over me..."
-------------------------------|
-------------------------------|
-------------------------------|
-------------------------------| X4
-5-5-5-3-5-7-8-8-7s8s7---------|
------------------------8------|

-----------------------------------------------|
-----------------------------------------------|
-----------------------------------------------|
-----------------------------------------------|
---------------------------------------5-3s5s3-|
--6-6-6-5-6-8-1-1-1-0-1-3-5-5-5-3-5-8----------|

----------------------------------------------------|
----------------------------------------------------|
----------------------------------------------------|
----------------------------------------------------|
----------------------------------------------------|
--6-6-6-5-6-8-1-1-1-0-1-3-5-5-5-3-5-8-5-5-5-(3-1-0)-|

-------------------------------|
-------------------------------|
-------------------------------|
-------------------------------|
-5-5-5-3-5-7-8-8-7s8s7---------|
------------------------8------|

-----------------------------------------------|
-----------------------------------------------|
-----------------------------------------------|
-----------------------------------------------|
---------------------------------------5-3s5s3-|
--6-6-6-5-6-8-1-1-1-0-1-3-5-5-5-3-5-8----------|

-----------------------------------------------------------------------|
-----------------------------------------------------------------------|
-----------------------------------------------------------------------|
-----------------------------------------------------------------------|
-----------------------------------------------------------------------| 5 slide down)
--6-6-6-5-6-8-1-1-1-0-1-3-5-5-5-3-5-8-5-5-5-(5-6-5-3-5-8---------------|

Chorus "When the zetas fill the skies.."
--------------------|
--------------------|
--7---5---10--15----|
--7---5---10--15----|
--5---3---8---13----|
--------------------|

-----------------------------|
-----------------------------|
-----------------------------|
-----------------------------|
--5---3---8---5-3-1-0-1-3-5--|
-----------------------------|

--------------------|
--------------------|
--7---5---10--15----|
--7---5---10--15----|
--5---3---8---13----|
--------------------|

-----------------------------|
-----------------------------|
-----------------------------|
-----------------------------|
--5---3---8---5-3-1-0-1-3-5--|
-----------------------------|

"And I've waited patiently"
-----------------------------------------------|
-----------------------------------------------|
-----------------------------------------------|
-----------------------------------------------|
---------------------------------------5-3s5s3-|
--6-6-6-5-6-8-1-1-1-0-1-3-5-5-5-3-5-8----------|

----------------------------------------------------|
----------------------------------------------------|
----------------------------------------------------|
----------------------------------------------------|
----------------------------------------------------|
--6-6-6-5-6-8-1-1-1-0-1-3-5-5-5-3-5-8-5-5-5-(3-1-0)-|

Solo

--------------------------------------|
--------------------------------------|
-14-12--------------------------------|
-------15-14-15--------15-14----------|
----------------15-12--------15-12-12-|
--------------------------------------|

-----------------------------------------------|
-----------------------------------------------|
-14-12-----------------------------------------|
-------15-14-15----------15-14-----------------|
----------------15--12---------15-12-10--12-13-|
-----------------------------------------------|

------------------------------------|
------------13----------------------|
--15-14-15------15-14---------------|
-----------------------15-14-11-11--|
------------------------------------|
------------------------------------|

----------------------------------------------------|
----------------------------------------------------|
-----14-12-14-15------------------------------------|
-------------------14-11---15h17h--15h17h--14-15----|
----------------------------------------------------|
----------------------------------------------------|

------------------------------------|
------------13----------------------|
--15-14-15------15-14---------------|
-----------------------15-14-11-11--|
------------------------------------|
------------------------------------|

----------------------------------|
----------------------------------|
--14------------------------------|
------14-14-17-17-15-15-14-14-----|
----------------------------------|
----------------------------------|

Verse 2 "Carried through the centuries..."
-------------------------------|
-------------------------------|
-------------------------------|
-------------------------------| X4
-5-5-5-3-5-7-8-8-7s8s7---------|
------------------------8------|

Chorus "When the zetas fill the skies"
--------------------|
--------------------|
--7---5---10--15----|
--7---5---10--15----|
--5---3---8---13----|
--------------------|

-----------------------------|
-----------------------------|
-----------------------------|
-----------------------------|
--5---3---8---5-3-1-0-1-3-5--|
-----------------------------|

--------------------|
--------------------|
--7---5---10--15----|
--7---5---10--15----|
--5---3---8---13----|
--------------------|

-----------------------------|
-----------------------------|
-----------------------------|
-----------------------------|
--5---3---8---5-3-1-0-1-3-5--|
-----------------------------|

"I'm waiting patiently"
-----------------------------------------------|
-----------------------------------------------|
-----------------------------------------------|
-----------------------------------------------|
---------------------------------------5-3s5s3-|
--6-6-6-5-6-8-1-1-1-0-1-3-5-5-5-3-5-8----------|

----------------------------------------------------|
----------------------------------------------------|
----------------------------------------------------|
----------------------------------------------------|
----------------------------------------------------|
--6-6-6-5-6-8-1-1-1-0-1-3-5-5-5-3-5-8-5-5-5-(3-1-0)-|

Outro

Guitar 1
-------------------------------|
-------------------------------|
-------------------------------| X2
-------------------------------|
-5-5-5-3-5-7-8-8-7s8s7---------|
------------------------8------|

-------------------------------|
-------------------------------|
-------------------------------|
-3--5 (slide down guitar)------|
-------------------------------|
-------------------------------|

Guitar 2

--------- ----------------|
--------- ----------------|
---7----- ---5---7--------|
---7--x2- ---5---7--------|
---5----- ---3---5--------|
--------- ----------------|

ACORDES PARA GUITARRA

PIANO UKELELE


COMENTARIOS

Aún no hay comentarios,

¡escribe el primero!

Escribe una pregunta, duda o comentario sobre esta canción, te responderemos a la brevedad.

Las más tocadas de Muse

Toca una Canción al Azar de Muse