Falling Away With You
Muse
Acordes

Subida por mapamar
Álbum: Absolution ( 2003)


Más Versiones
Ver. 2
+A
-A
Guitar:

Intro


C

------8--8------8--8------8--8------8--8-¦
-----------------------------------------¦
-5--5-------5--5------5--5------5--5-----¦ x however many (contudo muitos)
-----------------------------------------¦
-----------------------------------------¦
-----------------------------------------¦



Main Bit/Verse (Spread each chord)


C Am G F C Em E Am

------¦----------------------------------¦--------------0--0------¦
-5-6--13-13---12-12---10-10--10-10-8-6-¦-5-5----0-0--1--1--5-3-
-5-7--14---14-12---12-10---10---10-9-7-¦-5--5---0-1--2-----5-4-
------¦-14------12------10---------------¦-5------2-2--2----------¦
------¦-12------10-------8---------------¦-3-----------0----------¦
------¦----------------------------------¦------------------------¦


F Fm C

---1---------------¦
----1---3/5---5--5-¦
-2----1--------5---¦ x however many
-3----3------------¦
-3----3-----3------¦
-1-----------------¦



Chorus


A---Dm---A---Dm---A---Dm-Dm/G--A---Am---F ---G---C-C



Verse 2 (Same chords as 1st verse)


------¦-----------------------------¦--------------------------------------¦
------¦-----------------------------¦--------------------------------------¦
------¦-----------------------------¦--------------------------------------¦
-2-3--10-10----9-9----7-7-7-7-5-3-¦-2-2--------2--2-2-0----3--------2--2-¦
-3-5--12---12-10--10--8--8--8-7-5-¦-3--3-2-2-3---3--3-2-3---3--5/7-3--3--¦
------¦-----------------------------¦------3-4-5----------5-5--4-----------¦


x however many


tabbed by dazed and amused

ACORDES PARA GUITARRA

PIANO UKELELE
C
Am
G
F
Em
E
Fm
A
Dm
Dm/G


COMENTARIOS

Aún no hay comentarios,

¡escribe el primero!

Escribe una pregunta, duda o comentario sobre esta canción, te responderemos a la brevedad.

Las más tocadas de Muse

Toca una Canción al Azar de Muse
C
Am
G
F
Em
E
Fm
A
Dm
Dm/G