Fury
Muse
Acordes

Subida por paco
Álbum: Absolution ( 2003)


Más Versiones
Ver. 2
+A
-A
Standard Tuning 5 String

Amazing tune. One of their best I reckon.
If you've not got it yet, download it now...seriously!

h = hammer on
p = pull off
r = let ring


RIFF 1

G|-------------------------------|
D|-------------------------------|
A|-------------------------------|
E|-5------0---3-4-5------0-----|
B|---1-3-4-----------1-3-4-------|

LEADS INTO

Chorus 1ST Play

G|---------------------------------|
D|---------------------3r------3r--|
A|-----5r------5r------------------|
E|-----------------1r------1r------|
B|-3r------3r----------------------|

G|---------------------------------|
D|---------------------------------|
A|-----3-------3-------7-------7---|
E|---------------------------------|
B|-1r------1-------5-------5-------|

Chorus 2nd Play

G|--------------------------------|
D|--------------------------------|
A|-----5----3h7p3-----5----3h5r---|
E|-------3h5-----5------3h5-------|
B|-3--------------3---------------|

G|--------------------------------|
D|-----3----1h3p1-----3----1h3r---|
A|-------1h3-----3------1h3-------|
E|-1--------------1---------------|
B|--------------------------------|

G|--------------------------------|
D|--------------------------------|
A|-----3----1h3p1-----3----1h3r---|
E|-------1h3-----3------1h3-------|
B|-1--------------1---------------|

G|--------------------------------|
D|--------------------------------|
A|-----7----5h7p5-----7----5h7r---|
E|-------5h7-----7------5h7-------|
B|-5--------------5---------------|

Riff 2

G|-----------------------------|
D|-----------------------------|
A|-----------------------------|
E|-123-6-7-0---123-6-7-10-12-|
B|-----------------------------|

Last time you play Riff 2 it goes

G|-------------------------|
D|-------------------------|
A|-------------------------|
E|-123-6-7-0---123-6-7-0-|
B|-------------------------|

Riff 1
Chorus 1
Chorus 2
Riff 1
Chorus 1
Chorus 2
Riff 2
Riff 1
Chorus 1
Chorus 2
Riff 2

ACORDES PARA GUITARRA

PIANO UKELELE


COMENTARIOS

Aún no hay comentarios,

¡escribe el primero!

Escribe una pregunta, duda o comentario sobre esta canción, te responderemos a la brevedad.

Las más tocadas de Muse

Toca una Canción al Azar de Muse