Hoodoo
Muse
Acordes

Subida por NataliaIsabel
Álbum: Black Holes and Revelations ( 2006)


Más Versiones
Ver. 2
+A
-A
Intro:

E|-----------------------------------------------|
B|-----------------------------------------------|
G|-----------------------------------------------|
D|-----------------------------------------------|
A|--10^11^10-10101010-10-11-13-11-10----10^11^10-|
E|-----------------------------------13----------|

E|--------------------------------------------------|
B|--------------------------------------------------|
G|--------------------------------------------------|
D|-----------------------------------------8-8------|
A|--10-10-10^11-10----------------10^11^10----------|
E|-----------------13-11-10-11-13---------------20-|

E|--3--------4------- -3-|
B|--3--------4------- -3-|
G|--4--------5------- (x2) -4-|
D|--5--------6------- -5-|
A|--5--------6------- -5-|
E|--3-(x11)--4-(x11)- -3-|

E|------------------------------------------------|
B|------------------------------------------------|
G|------------------------------------------------|
D|------------------------------------------------|
A|------------------------------------------------|
E|--3^4^3-(repeat)--2^3^2-(repeat)--3-3-3-4-6-4-3-|

Verso 1:
E|--------------8----------------------3-----------3-3-|
B|------------8------------------9----4---0--------4-3-|
G|----------8-----------------10-----3----0--------4-4-|
D|-------10----------------10-------5--------------5-5-|
A|----10-----------8-10-11-----------------------------|
E|--8---------------------------------------6-4-3------|

Verso 2:
E|-----------------8----------------------3-----------3-3-|
B|---------------8------------------9----4------------4-3-|
G|-------------8-----------------10-----3----0--------4-4-|
D|----------10----------------10-------------0------------|
A|-------10-----------8-10-11-----------------------------|
E|--3/-8---------------------------------------6-4-3------|

Refrão:
E|--------1-----1---------------------------------------------|
B|------1-----1---1---------4-----4-----------3-----------3---|
G|----1-----1-------1-----5-----5---5-------4---4-------4---4-|
D|--3-------------------5-----5-------5---5-------5---5-------|
A|--------------------6-----------------5-----------5---------|
E|------------------------------------------------------------|

E|-----------------------------------3-3-----------------------|
B|--------4-----------4--------------3-3-------4---------------|
G|------5---5-------5---5------------4-4-----5---5---------5---|
D|----5-------5---5------5---------5---5---6-------6-----6---6-|
A|--6-----------6----------------5---------------------6-------|
E|-------------------------6-4-3---------4-----------4---------|

E|--8--7---|
B|--8--8---|
G|--8--7---|
D|--10-9---|
A|--10-10--|
E|--8------|

Instrumental:
E|--3---------------3---3-8---------------------2-2-3-5-3-5-|
B|--4---3-----------4-3-4-9---------------------3-3-3-7-3-7-|
G|--5---3-----------5-5-5-10-7-7-5-5-3-2--------2-2-3-5-3-5-|
D|--5---3---------1-5-4-5-10-6-8-7-6-5-4-----1--0-x-3-7-3-7-|
A|--3---1-----1-----3-5-3-8--8-8-8-6-5-4---3------3-1-0-1-0-|
E|----3---1-3---3------------7-6-5-4-3-2-2------------------|

E|-1-----3-|
B|-1-8-3-4-|
G|-1-8-5-5-|
D|-3-8-4-5-|
A|-3-6-5-3-|
E|-1-------|

Outro:
E|--------------------3--------3-3-------------------------------|
B|---------------9----4--------4-3-------------------------------|
G|-------------10-----3--------4-4-------------------------------|
D|----------10--------5--------5-5-------------------------------|
A|--8-10-11------------------------------------------------------|
E|-----------------------6-4-3------8^9^8-8-8-8-9-11-9-8-6-8^9^8-|

E|--------------------------7------|
B|-------------------------8---8--|
G|------------------------8----8--|
D|----------------------10-----10-|
A|---------------------------------|
E|--8-8-9-8-6-4-3-4-6-8------------|

ACORDES PARA GUITARRA

PIANO UKELELE


COMENTARIOS

Aún no hay comentarios,

¡escribe el primero!

Escribe una pregunta, duda o comentario sobre esta canción, te responderemos a la brevedad.

Las más tocadas de Muse

Toca una Canción al Azar de Muse