Host
Muse
Acordes

Subida por Lisqituqqcof


Más Versiones
Ver. 2 Ver. 3
+A
-A

|-----------|-----------|-----------|-----------|-----------|-----------|
|-----------|-----------|-----------|-----------|-----------|-----------|
|-0---------|-2---------|-3---------|-2---------|-0---------|-----------| x2
|-----------|-----------|-----------|-----------|-----------|-0---------|


|-----------|-----------|-----------|-----------|
|-----------|-----------|-0---------|-0-0-------|
|-0-2-3-----|-----------|-----------|-----------|
|-----------|-0---------|-----------|-----------|
| x2
|-----------|-----------|-----------|-----------| /
|-----------|-----------|-----------|-----------| /
|-0---------|-0-0-------|-0---------|-0---------| /
|-----------|-----------|-----------|-----------|/


|-----------|-----------|-----------|-----------|
|-----------|-----------|-----------|-----------|
|-3-3-3-3-3-|-----------|-----------|-----------| x8
|-----------|-0-0-0-0-0-|-1-1-1-1-1-|-3-3-3-3-3-|

|------------|-----------|-----------|-----------|
|------------|-----------|-----------|-----------|
|------------|-----------|-----------|-----------|
|-5----------|-7---------|-8---------|-10--------|

|------------|-----------|-----------|
|------------|-----------|-----------|
|------------|-----------|-0---------|
|-12--12---|-0---------|-----------|

|----------------|----------------|----------------|
|----------------|----------------|----------------|
|0-0-0-0-0-0-0-0-|2-2-2-2-2-2-2-2-|3-3-3-3-3-3-3-3-|
|----------------|----------------|----------------|

|----------------|----------------|----------------|
|----------------|----------------|----------------|
|2-2-2-2-2-2-2-2-|0-0-0-0-0-0-0-0-|----------------|
|----------------|----------------|0-0-0-0-0-0-0-0-|

|----------------|----------------|----------------|
|----------------|----------------|----------------|
|0-0-0-0-2-2-2-2-|3-3-3-3-5-5-5-5-|0-0-0-0-0-0-0-0-|
|----------------|----------------|----------------|

|----------------|----------------|----------------|
|----------------|----------------|----------------|
|2-2-2-2-2-2-2-2-|3-3-3-3-3-3-3-3-|5-5-5-5-5-5-5-5-|
|----------------|----------------|----------------|

|----------------|----------------|----------------|
|-2--------------|----------------|----------------|
|----------------|----------------|-0--------------|
|----------------|-0--------------|----------------|

|----------------|
|----------------|
|-0--------------|
|----------------|

ACORDES PARA GUITARRA

PIANO UKELELE


COMENTARIOS

Aún no hay comentarios,

¡escribe el primero!

Escribe una pregunta, duda o comentario sobre esta canción, te responderemos a la brevedad.

Las más tocadas de Muse

Toca una Canción al Azar de Muse