Hyper Chondriac Music
Muse
Acordes

Subida por Nayade2020


Más Versiones
Ver. 2
+A
-A
Chords: Gm 355333
Dm x00231
C x32010

Everything is strummmed downwards, and vary the fingering on various chords,
but especially the Dm chord.

Gm Dm C
|-3-3-3-3-3-3-3-3-|-----------------|-----------------|-----------------|
|-5-5-5-5-5-5-5-5-|-0-0-0-0-0-0-0-0-|-3-3-3-3-3-3-3-3-|-3-3-3-3-3-3-3-3-|
|-5-5-5-5-5-5-5-5-|-0-0-0-0-0-0-0-0-|-2-2-2-2-2-2-2-2-|-2-2-2-2-2-2-2-2-|
|-3-3-3-3-3-3-3-3-|-2-2-2-2-2-2-2-0-|-0-0-0-0-0-0-0-0-|-0-0-0-0-0-0-0-0-|
|-3-3-3-3-3-3-3-3-|-3-3-3-3-3-3-3-3-|-1-1-1-1-1-1-1-1-|-1-1-1-1-1-1-1-1-|
|-3-3-3-3-3-3-3-3-|-1-1-1-1-1-0-0-0-|-0-0-0-0-0-0-0-0-|-0-0-0-0-0-0-0-0-|


Your golden lies feed my role
In this forgotten space race under my control
Who's returned from the dead?
Who remains?

You wanted more than I was worth
And you think I was scared
And you needed proof
Who really cares anymore?
Who restrains?



Solo:

E|------------------------------------------------------------------
B|------------------------------------------------------------------
G|------------------------------------------------------------------
D|----4/5----(0)----5----4-----3---------------------------------- x2
A|-------------------------------------(0)-----6-----5-----3-------
E|-------------------------------------------------------------------



E|---------------------------------------------------------------------------------------------------
B|---------15----------13---------11---------10----------13----------11-------10---------8--------
G|-------15----------14---------12---------10-----------12----------12------10---------9----------
D|---------------------------------------------------------------------------------------------------A---------------------------------------------------------------------------------------------------
E|---------------------------------------------------------------------------------------------------

E|----------------------------------------------------------------------
B|---------15----------13---------11---------10------------8--------
G|-------15----------14---------12---------10------------9----------
D|----------------------------------------------------------------------
A|----------------------------------------------------------------------
E|----------------------------------------------------------------------


I don't love you
I never did
I don't love you
and I never will

Enjoy.

ACORDES PARA GUITARRA

PIANO UKELELE
Gm
Dm
C


COMENTARIOS

Aún no hay comentarios,

¡escribe el primero!

Escribe una pregunta, duda o comentario sobre esta canción, te responderemos a la brevedad.

Las más tocadas de Muse

Toca una Canción al Azar de Muse
Gm
Dm
C