Invincible
Muse
Acordes

Subida por santicolque
Álbum: Black Holes and Revelations ( 2006)


Más Versiones
Ver. 2 Ver. 3 Ver. 4

Cambiar Cifrado
Americano Latino

Cambiar Tonalidad
-1 +1

Partir Pantalla Imprimir FAQ

+A
-A
Intro-Starts with echoed/reverb effects, then this comes in- 
E|----------------------------------------------------------------------|
B|-178-8-8/178-8-8/1810-10-10/1810-10-10/1812-12-12/1812/13/15/17-|
G|----------------------------------------------------------------------|
D|----------------------------------------------------------------------|
A|----------------------------------------------------------------------|
E|----------------------------------------------------------------------|

Verse-Bass (Guitar Plays nothing)
G|---------------------------------------------------------|
D|-----------------------------33333--33333--33333--33333--|
A|-33333--33333--33333--33333------------------------------|
E|---------------------------------------------------------|

G|---------------------------------------------------------|
D|--------------55555--55555-----------------77777--77777--|
A|-55555--55555----------------77777--77777----------------|
E|---------------------------------------------------------|

G|---------------------------------------------------------|
D|---------------55555--55555------------------------------|
A|-88888--88888----------------33333--33333--33333--33333--|
E|---------------------------------------------------------|

G|---------------------------------------------------------|
D|----------------------00002--33333--33333--33333--33332--|
A|-33333--33333--33333-------------------------------------|
E|---------------------------------------------------------|

G|---------------------------------------------------------|
D|---------------55555--5555--------------6--77777--77775--|
A|-55555--55558-------------8--77777--7777-----------------|
E|---------------------------------------------------------|

G|---------------------------------------------------------|
D|---------------------------------------------------------|
A|-88888--88885/----------------33333--33333--33333--33333-|
E|----------------33333--33333-----------------------------|

Chorus (clean)
E|--8~----10~----8~-----8~----13~----10~----12~----12~----13~----15~----|
B|-10~----12~----8~----10~----15~----12~----12~----13~----13~----15~----|
G|-10~----12~----9~----10~----14~----12~----13~----14~----14~----16~----|
D|--------------10~-----------12~---------------------------------------|
A|----------------------------------------------------------------------|
E|----------------------------------------------------------------------|

Bridge
E|-(8)----------------------------------------------------------------------|
B|-(8)-178-8-8/178-8-8/1810-10-10/1810-10-10/1812-12-12/1812/13/15/17-|
G|-(9)----------------------------------------------------------------------|
D|(10)----------------------------------------------------------------------|
A|--------------------------------------------------------------------------|
E|--------------------------------------------------------------------------|

Verse 2
E|----------| |----------| |------1---| |----------| |------0---|
B|------1---| |------1---| |---3-3-3--| |------3---| |---0-0-0--|
G|---0-0-0--|x4 |---2-2-2--|x4 |--2-2---2-|x2 |---0-0-0--|x2 |--1-1---1-|x2
D|--2-2---2-| |--3-3---3-| |-0--------| |--0-0---0-| |-2--------|
A|-3--------| |-3--------| |----------| |-2--------| |----------|
E|----------| |----------| |----------| |----------| |----------|

E|------0---| |----------| |----------|
B|---1-1-1--| |------1---| |------3---|
G|--2-2---2-|x2 |---2-2-2--|x2 |---0-0-0--|x2
D|-2--------| |--3-3---3-| |--0-0---0-|
A|----------| |-3--------| |-2--------|
E|----------| |----------| |----------|

Pre Chorus
E|----------|
B|------1---|
G|---0-0-0--|x4
D|--2-2---2-|
A|-3--------|
E|----------|

Chorus
E|-----------8-----| |-----------10-----| |-------8---|
B|-----10--10-10---| |-----12--12--12---| |----8-8-8--|
G|---10--10-----10-|x2 |---12--12------12-|x2 |---9-9---9-|x2
D|-10--------------| |-12---------------| |-10--------|
A|-----------------| |------------------| |-----------|
E|-----------------| |------------------| |-----------|

E|-----------8-----| |-----------13-----| |-----------15-----|
B|-----10--10-10---| |-----15--15--15---| |-----15--15--15---|
G|---10--10-----10-|x2 |---14--14------14-|x2 |---16--16------16-|x2
D|-10--------------| |-12---------------| |-17---------------|
A|-----------------| |------------------| |------------------|
E|-----------------| |------------------| |------------------|

E|-----------12-----| |-----------12-----| |-----------13-----|
B|-----12--12--12---| |-----13--13--13---| |-----13--13--13---|
G|---13--13------13-|x2 |---14--14------14-|x2 |---14--14------14-|x2
D|-14---------------| |-14---------------| |-15---------------|
A|------------------| |------------------| |------------------|
E|------------------| |------------------| |------------------|

E|-----------15-----| |--8~--|
B|-----15--15--15---| |--8~--|
G|---16--16------16-|x2 |--9~--|
D|-17---------------| |-10~--|
A|------------------| |------|
E|------------------| |------|

Interlude
Bass Riff
G|-------5-----3-----------------3-------------------------------------|
D|-2-----------------6-----5---------6-----5-----3-----6-----5---3-----|
A|---3-3---3-3---3-3---3-3---3-3---3---3-3---3-3---3-3---3-3---3---3---|
E|---------------------------------------------------------------------|

Guitar
E|---------------------------------------------------------------------|
B|-x-x-x-x-x-x-x-x-x-x-x-x-x-x-x-x-x-x-x-x-x-x-x-x-x-x-x-x-x-x-x-x-x-x-|
G|-x-x-x-x-x-x-x-x-x-x-x-x-x-x-x-x-x-x-x-x-x-x-x-x-x-x-x-x-x-x-x-x-x-x-|
D|-x-x-x-x-x-x-x-x-x-x-x-x-x-x-x-x-x-x-x-x-x-x-x-x-x-x-x-x-x-x-x-x-x-x-|
A|---------------------------------------------------------------------|
E|---------------------------------------------------------------------|

E|-----------------------------------------------------------|
B|-----------------------------------------------------------|
G|-5-----5-----5-----5---5-5-5-----5-----5-----5-----5---5-5-|
D|-----------------------------------------------------------|
A|---3-3---3-3---3-3---3-------3-3---3-3---3-3---3-3---3-----|
E|-----------------------------------------------------------|

E|-----------------------------------------------------------|
B|-----------------------------------------------------------|
G|-5-----5-----5-----5---5-5-5-----5-----5-----5---5//////16-|
D|-----------------------------------------------------------|
A|---3-3---3-3---3-3---3-------3-3---3-3---3-3---3-----------|
E|-----------------------------------------------------------|

Solo-as parte com T é tapping com a mão direita
T T T T
E|-h15p-3p1p0h1p0-h13p-3p1p0h1p0-h12p-3p1p0h1p0-h13p-0h3p0-h15p-0h5p0-|
B|--------------------------------------------------------------------|
G|--------------------------------------------------------------------|
D|--------------------------------------------------------------------|
A|--------------------------------------------------------------------|
E|--------------------------------------------------------------------|
T T T T T
E|-h17p-5p3p0h3p0-h15p-5p3p0h3p0-h13p-5p3p0h3p0-h15p-0h5p0-h17p-0h5p0-|
B|--------------------------------------------------------------------|
G|--------------------------------------------------------------------|
D|--------------------------------------------------------------------|
A|--------------------------------------------------------------------|
E|--------------------------------------------------------------------|
T T T T T T
E|-h17p-5p3p0h3p0-h15p-0h3p0-h17p-0h3p0-h19p-7p5p0h1p0-h17p-0p5h0-h19p-|
B|---------------------------------------------------------------------|
G|---------------------------------------------------------------------|
D|---------------------------------------------------------------------|
A|---------------------------------------------------------------------|
E|---------------------------------------------------------------------|
T T T T T
E|-0h5p0-h19p-7p5p0h1p0-h17p-0p5h0-h19p-0h5p0-h20p-8p7p0h7p0-h19p-0h7p0-|
B|----------------------------------------------------------------------|
G|----------------------------------------------------------------------|
D|----------------------------------------------------------------------|
A|----------------------------------------------------------------------|
E|----------------------------------------------------------------------|
T T T T T
E|-h20p-0h7p0-h20p-8p7p0h7p0-h19p-0h7p0-h20p-0h7p0-h22p-3p1p0h1p0-10^bu-|
B|----------------------------------------------------------------------|
G|----------------------------------------------------------------------|
D|----------------------------------------------------------------------|
A|----------------------------------------------------------------------|
E|----------------------------------------------------------------------|

E|-10^^bu~~~~~~(effects come in)---------------------------------|
B|---------------------------------------------------------------|
G|---------------------------------------------------------------|
D|---------------------------------------------------------------|
A|---------------------------------------------------------------|
E|---------------------------------------------------------------|

Chorus (Overdrive)
E|--8~----10~----8~-----8~----13~----10~----12~----12~----13~----15~----|
B|-10~----12~----8~----10~----15~----12~----12~----13~----13~----15~----|
G|-10~----12~----9~----10~----14~----12~----13~----14~----14~----16~----|
D|--------------10~-----------12~---------------------------------------|
A|----------------------------------------------------------------------|
E|----------------------------------------------------------------------|

Outro
E|------------------------------------------|
B|------------------------------------------|
G|-5555~5555~5555~5555~5555~5555~5555~5555/-|
D|-xxxx-xxxx-xxxx-xxxx-xxxx-xxxx-xxxx-xxxx--|
A|-3333~3333~3333~3333~3333~3333~3333~3333/-|
E|------------------------------------------|

ACORDES PARA GUITARRA

PIANO UKELELE


COMENTARIOS

Aún no hay comentarios,

¡escribe el primero!

Escribe una pregunta, duda o comentario sobre esta canción, te responderemos a la brevedad.

Las más tocadas de Muse

Toca una Canción al Azar de Muse