Jimmy Kane
Muse
Acordes

Subida por Samuelmolina



+A
-A

Not much variation but here it is:

Verse

G|------4-2---------2----------|
D|----------4-2-2-4------------| X 20
A|--2-2------------------------|
E|-----------------------------|

Bridge

G|-----------------------------|
D|-----------------------------|
A|-----------------------------|
E|--0-0---5-5---0-0---5-5------|

Chorus

G|----------------------------------|
D|----------------------------------|
A|-----7-6-5------------------------|
E|-0-0-------5-6-7--5-5-5-5-5-3-0-3-|

Repeat verse and chorus.

--------------------------------------
Feel free to write comments!




ACORDES PARA GUITARRA

PIANO UKELELE


COMENTARIOS

Aún no hay comentarios,

¡escribe el primero!

Escribe una pregunta, duda o comentario sobre esta canción, te responderemos a la brevedad.

Las más tocadas de Muse

Toca una Canción al Azar de Muse