Knights Of Cydonia
Muse
Acordes

Subida por ronald777
Álbum: Black Holes and Revelations ( 2006)


Más Versiones
Ver. 2 Ver. 3
+A
-A
Intro:
E F G A A B (4x) / E E G C G B C D# G C G G# D# G G# D# G C / C D# G# D# G G# B D# G# D# E B D# E B D# G#
D|--------------| |---------|------------------------------|------------------------------|
A|--------------|(4x)|---------|----3-2-3-6-3---6---6-3-3-3-3-|-3-6-6-----6-6-7-6-7-6--------|
E|-0-2-3--5-5-7-| |-0-0-0-0-|-0-3-3-----3-3-4-3-4-3--------|----4-3-4-7-4---7---7-4-4-4-4-|

{Parte 1}
G# B E B D# E G B E B C G B C G B E
D|------------------------------------------|
A|------77--66-77-----77--33--22-33--22-----|
E|-44-77--77-----33-77--77--33-----33--0000-|
Come ride with me / Through the veins of history / I'll show you a god / Who falls asleep on the job
And how can we win When fools can be kings / Don't waste your time / Or time will waste you

E F G A A B (4x) E
G|--------------| |-------------|-----------------9-
D|--------------| |-------------|-------------9--9--(2x)
A|--------------|(4x)|-------------|-7-7-10-7-10--10---
E|-0-2-3--5-5-7-| |-00-00-00-00-|--7----------------

{Refrão c/ Sintetizador}
No one's go to take me alive / The time has come to make things right
You and I must fight for our rights / You and I must fight to survive
G|-----------------9- |------------7- |-----------6- |-----------------9- |
D|-------------9--9--(2x)|---------9-9--(2x)|--------7-7--(2x)|-------------9--9--(2x)|(repete tudo)
A|-7-7-10-7-10--10--- |-5-5-9--9-9--- |-4-4-7-7-7--- |-7-7-10-7-10--10--- |
E|--7---------------- |--7---10------ |--5---9------ |--7---------------- |n

E B A E (4x)
(2x) |No one's go to take me alive / The time has come to make things right
| You and I must fight for our rights / You and I must fight to survive
* {Base do baixo original}
G|-----------------------|----------------|
D|-14-14-----------------|----------------|
A|------14-14-12-12------|----------------|
E|-----------------12-12-|-12-12-77-55-00-|

* {Base do baixo alternativa}
G|-----------------9- |----------------11- |----------------------14- |-----------9-9-12-
D|-------------9--9--(4x)|-----9-9-12-9-12---(2x)|-------11--11-14-11-14---(2x)|-------9--9-9-----(2x)
A|-7-7-10-7-10--10--- |-9--9-9------------ |-12--12--12-------------- |-10--10-10--------
E|--7---------------- |--10--------------- |---12-------------------- |---12-------------

G|-----------9-9-12- |----------------------16- |----------------------18-
D|-------9--9-9-----(2x)|----------------16--16---(2x)|----------------19--19---(2x)
A|-10--10-10-------- |-14--14-17-14-17--17----- |-16--16-19-16-19--19-----
E|---12------------- |---14-------------------- |---17--------------------

G|----------------------21-
D|-------17--17-21-17-21---(2x)
A|-19--19--19--------------
E|---19--------------------

{Arranjo}
E B A E (2x)
D|-0h2-0h2-0h2-0h2-5p2p0---------------0h2--------------------------------------0p2-|
A|----------------------5p2-5p2-5p2-2h5---2p0-2p0-2p0-2p02p0-----------------0p2----|
E|----------------------------------------------------------0h3p0-0h3p0-0h3p0-------|

{Refrão c/ arranjo}
E B A E (2x)
D|-0h2-0h2-0h2-0h2-5p2p0---------------0h2--------------------------------------0p2-|
A|----------------------5p2-5p2-5p2-2h5---2p0-2p0-2p0-2p02p0-----------------0p2----|
E|----------------------------------------------------------0h3p0-0h3p0-0h3p0-------|

{Arranjo estendido}
E B A E (2x)
D|-0h2-0h2-0h2-0h2-5p2p0---------------0h2--------------------------------------0p2-|
A|----------------------5p2-5p2-5p2-2h5---2p0-2p0-2p0-2p02p0-----------------0p2----|
E|----------------------------------------------------------0h3p0-0h3p0-0h3p0-------|

D|---------------------------------------------------0p2-|
A|--------------------------0p2--------------------------|(2x)
E|-0-0h3p0-0h3p0-0h3p0-0h3p0---0h3p0-0h3p0-0h3p0-0h3p0---|

ACORDES PARA GUITARRA

PIANO UKELELE
E
F
G
A
B
C
D#
G#


COMENTARIOS

Aún no hay comentarios,

¡escribe el primero!

Escribe una pregunta, duda o comentario sobre esta canción, te responderemos a la brevedad.

Las más tocadas de Muse

Toca una Canción al Azar de Muse
E
F
G
A
B
C
D#
G#