Madness
Muse
Acordes

Subida por Ihce121
Álbum: The 2nd Law ( 2012)


Más Versiones
Ver. 2 Ver. 3 Ver. 4 Ver. 5 Ver. 6
+A
-A
Intro: Bb  Bb  Bb  Bb

Bb
I, I can't get these memories out of my mind
G# Eb Bb
And some kind of mad-ness has started to evolve

Bb
I, I tried so hard to let you go
G# Eb Bb
But some kind of mad-ness is swallowing me whole, yeah

Refrão:
Gm F Eb
I have finally seen the light
Gm F Eb Bb
I have finally realised what you mean
Bb
Ooh ah ah aah ah ah

Bb
Now I need to know: is this real love?
G# Eb Bb
Or is it just mad-ness keeping us afloat, hmmm

Bb
When I look back at all the crazy fights we had
G# Eb Bb
Like some kind of mad-ness was taking control, yeah

Refrão:
Gm F Eb
I have finally seen the light
Gm F Eb Bb
I have finally realised what you mean
Bb
Hmmm hmm hmm hmm hmm hmm


Solo: Bb Bb Bb Bb
Eb Eb Bb Bb

E|-----------------------|
B|------12p13~~~--------------|
G|-----------------------|
D|-----------------------|
A|-----------------------|
E|-----------------------|

E|----------------------------------------------------------------------------------------|
B|------------------10--10----12^---12b13r12--10--12---12p13p12-10--12--10----------------|
G|------------9--9------------------------------------------------------------------------|
D|----11--11-----------------------------------------------------------------7-7----------|
A|---------------------------------------------------------------------------7-7----------|
E|---------------------------------------------------------------------------5-5(dive)----|

E|-----------------------------------17-------17-------15-------15-|
B|---12p13p12--12p13--12--10---------------------------------------|
G|-----------------------------11h12----11h12----11h12----11h12----|
D|-----------------------------------------------------------------|
A|-----------------------------------------------------------------|
E|-----------------------------------------------------------------|

E|--------14-------14-------12-------12-------------------------------|
B|--------------------------------------------15-------15-------14---|
G|--11h12----11h12----11h12----11h12----11h12----11h12----11h12-------|
D|--------------------------------------------------------------------|
A|--------------------------------------------------------------------|
E|--------------------------------------------------------------------|

E|--------7--------------|
B|-----------------------|
G|------7---7------------|
D|-----------------------|
A|-----------------------|
E|--------------9~~~----|


Refrão:
Gm F Eb
Now, I have finally seen the end (finally seen the end)
Gm F Eb
I'm not expecting you to care (expecting you to care)
Gm F Eb
But I have finally seen the light (finally seen the light)
Gm F Eb
And I have finally realised (realized)

(repetir várias vezes cada um)
E|--------------------------|
B|----7--9--10--------------|
G|----6--9--9---------------|
D|----4--6--7---------------|
A|--------------------------|
E|--------------------------|
Gm F Eb
I need your love!
Gm F Eb
I need your love!

(na parte do "I need your looooove", repetir várias vezes cada um com esta pequena alteração)
E|--------------------------|
B|----7--9--10--10----------|
G|----6--9--9---11----------|
D|----4--6--7---12----------|
A|--------------------------|
E|--------------------------|
Gm F
Come to me, just in your dream
Eb
Come on and rescue me
Gm F
Yes I know, I can't be wrong
Eb
Maybe I'm too headstrong
Eb
Our love is...

Final: (repetir duas vezes)
E|-------9-----9-----9-----9---------10-----10----12-------12----12----12-------12---12-|
B|----10----10----10----10---------10----10----10-------10----10----10-------10----10---|
G|--------------------------------------------------------------------------------------|
D|--------------------------------------------------------------------------------------|
A|--------------------------------------------------------------------------------------|
E|--------------------------------------------------------------------------------------|
mamamamamamama madness////////////////// ¿Te Animas? Sube una canción a este sitio. //////////////////

ACORDES PARA GUITARRA

PIANO UKELELE
Bb
G#
Eb
Gm
F


COMENTARIOS

Aún no hay comentarios,

¡escribe el primero!

Escribe una pregunta, duda o comentario sobre esta canción, te responderemos a la brevedad.

Las más tocadas de Muse

Toca una Canción al Azar de Muse
Bb
G#
Eb
Gm
F