Megalomania
Muse
Acordes

Subida por Maximilianolopez2019
Álbum: Origin of Symmetry ( 2001)


Más Versiones
Ver. 2
+A
-A
Tabber - Zeidrich

Organ intro, then verse:

G|-------------- --------------------------------|
D|-------------- --------------------------------|
A|-7--7--------- x6 -7--7-9--9-9--12--12-14--14-14--|
E|------7--7-7-- --------------------------------|

G|-----------------------------------------------------|
D|-----------------------------------------------------|
A|-7--7-3--3-3--2--2-0--0-0----------------------------|
E|---------------------------3--3-4--4-4--5--5-7--7-7--|

G|-------------- --------------------------------|
D|-------------- --------------------------------|
A|-7--7--------- x2 -7--7-9--9-9--12--12-14--14-14--|
E|------7--7-7-- --------------------------------|

G|-----------------------------------------------------|
D|-----------------------------------------------------|
A|-7--7-3--3-3--2--2-0--0-0----------------------------|
E|---------------------------3--3-4--4-4--5--5-7--7-7--|

PreChorus:

G|------------------------|
D|------------------------|
A|-7----5-5-5--5--5--2----|
E|------------------------|

Chorus:

G|-------------------------------------------------|
D|-------------------------------------------------|
A|-3-3-3-3-0-0-0-0-5-5-5-5-5-5-5-5-2-2-2-2---------|
E|-----------------------------------------3-3-3-3-|

G|--------------------------------------------------------------------|
D|--------------------------------------------------------------------|
A|-3-3-3-3-3-3-3-3-3-3-3-3-2-2-2-2-0-0-0-0-0-0-0-0-2-2-2-2-2-2-2-2-2--|
E|--------------------------------------------------------------------|

Verse 2 is slightly diff:

G|-------------- --------------------------------|
D|-------------- --------------------------------|
A|-7--7--------- x6 -7--7-9--9-9--12--12-14--14-14--|
E|------7--7-7-- --------------------------------|

G|-----------------------------------------------------|
D|-----------------------------------------------------|
A|-7--7-3--3-3--2--2-0--0-0----------------------------|
E|---------------------------3--3-4--4-4--5--5-7--7-7--|

G|-------------- --------------------------------|
D|-------------- --------------------------------|
A|-7--7--------- x2 -7--7-9--9-9--12--12-14--14-14--|
E|------7--7-7-- --------------------------------|

G|-----------------------------------------------------|
D|-----------------------------------------------------|
A|-7--7-11--11-11--10--10-11--11-11--12--12-14--14-14--|
E|-----------------------------------------------------|

Prechorus is same but chorus is diff:

G|-------------------------------------------------|
D|-------------------------------------------------|
A|-3-3-3-3-0-0-0-0-5-5-5-5-5-5-5-5-2-2-2-2---------|
E|-----------------------------------------3-3-3-3-|

G|--------------------------------------------------|
D|--------------------------------------------------|
A|-3-3-3-3-3-3-3-3-3-3-3-3-2-2-2-2-0-0-0-0-0-0-0-0--|
E|--------------------------------------------------|

G|---------------------------------|
D|---------------------------------|
A|-2-2-2-2-2-2-2-2-2-2-2-2-2-2-2-2-|
E|---------------------------------|

Outro:

G|----------------------------------- ------------|
D|----------------------------------- ------------|
A|-9-9-9-9-9999-9-9-5-5-5-5-5555-5-5- x4 -9----------|
E|----------------------------------- -------2----|

ACORDES PARA GUITARRA

PIANO UKELELE


COMENTARIOS

Aún no hay comentarios,

¡escribe el primero!

Escribe una pregunta, duda o comentario sobre esta canción, te responderemos a la brevedad.

Las más tocadas de Muse

Toca una Canción al Azar de Muse